busca

Grata Nova

Harpa Cristã

Tom: G
E|-------------5-3-|-1---1---0---0-|---1-5---------1-|---------------|
B|-----------------|-3---3---2---2-|-3---6-------3-3-|-10--10--8---7-|
G|-------------2-0-|-2---2---0---0-|-2---2-------2-2-|-10--9---8---7-|
D|-----------------|-0---0---2---2-|-0---0-------0-0-|-0-----------7-|
A|-----------------|---------------|-----------------|-8-------10----|
E|-----------------|---------------|-----------------|-----9---8---8-|

E|-5---3-------6-5-|-3---1---0-----|---0-5---------0-|-1----1--0---5-|
B|-----3-----------|-5---3---2---3-|-2---5-------3---|-3----3--2---5-|
G|-0-----------3-2-|-3---2---0---4-|-------------2-2-|-2----2--2---2-|
D|-8---------------|-----0-------3-|-2---2-------0-0-|-0----0--0---0-|
A|-----------------|-7-------4---5-|-0---0-----------|---------------|
E|-6---------------|---------------|-----------------|---------------|

E|-----------------|----------------|-------------10-12-|-13------5-----|
B|-3---------10-10-|-10--10--10--10-|-15--15------10----|-10--15------7-|
G|-2---------10-10-|-10--10--10--10-|-10--10---------12-|-----11--7---5-|
D|-0---------0--0--|-0---0---0---0--|-0---0-------0--0--|-0---0---7---7-|
A|-----------12-12-|-12--12--12--12-|-12--12------12-12-|-12--12--5---5-|
E|-----------------|----------------|-------------------|---------------|

E|-5-----------6-5-|-0-------------|---0-5-----------|-------------5-|
B|-----8-----------|-8---6---5---0-|-----5---------5-|-6----6--5---5-|
G|-----------------|-0---7---6---7-|-6-----------7---|-7----7--6-----|
D|-8---8-------8-7-|-----7---7---7-|-7---7-------7-7-|-7----7--7---7-|
A|-5---------------|-7---5---4---5-|-0-----------5-5-|-5----5--------|
E|-6---------------|---------------|-----5-----------|---------5---5-|

E|-------------8-6-|-5---5---3---3-|-1-----------1-3-|---------10---8--|
B|-----------------|-6---6---5---5-|-1---1-----------|-10------6-------|
G|-7-----------5-3-|-5---5---5---5-|-2---2-------2-2-|-10--10-------9--|
D|-7---------------|-3---3---------|-3---3-------3-3-|-10--10--8----10-|
A|-5---------------|---------3---3-|-----------------|-----12----------|
E|-----------------|---------------|-----------------|-13--13--6----8--|

E|-----------------|-10-------------|--------------8-----|-------------8--|
B|-11-10-8---8--11-|-----11--8------|----8------------11-|-10---10-8------|
G|-9--9--9---9--9--|-9---9---9---10-|-9--9---------------|-10---10-9---9--|
D|-10--------10-10-|-10--10--10--10-|-10---10------10-8--|-10---10-10--10-|
A|-----------------|----------------|-10---10------------|-8----8---------|
E|-8---------8--8--|-8---8---8---8--|-8----8-------------|---------8---8--|

E|-1---------------|
B|-1---------------|
G|-2---------------|
D|-3---------------|
A|-----------------|
E|-----------------|

Clipes

Cifra Club Pro

Aproveite o Cifra Club com benefícios exclusivos e sem anúncios
7 dias grátis
Cifra Club Pro
Aproveite o Cifra Club com benefícios exclusivos e sem anúncios
7 dias grátis