busca

Mais Que a Mim

Melim

Tom: G#m
[Intro]

E|---------------------|---------------------|
B|--------4-------4----|----------4-----4----|
G|--4/6-6---4-4h6------|----4/6-6---4h6------|
D|------------------6--|------------------6--|
A|---------------------|---------------------|
E|---------------------|---------------------|

Ouvi dizer que você tá bem, Que já tem um outro alguém

E|---------------------|---------------------|
B|--------4-------4----|----------4-----4----|
G|--4/6-6---4-4h6------|----4/6-6---4h6------|
D|------------------6--|------------------6--|
A|---------------------|---------------------|
E|---------------------|---------------------|

  Encontrei moedas pelo chão. Mas não vi ninguém pra me abraçar. Me dar a mão

E|-----------------------|---------------------------|-----------|
B|-----------------------|------7-9-9-7~~---7--------|-----------|
G|--------4-6-4-6/8-6-6--|--8-8---------------8-6----|----6-8----|
D|--4-4h6----------------|------------------------9--|--6-----9--|
A|-----------------------|---------------------------|-----------|
E|-----------------------|---------------------------|-----------|

Eu chorei sem disfarçar. Quando vi seu carro passar

E|---------------------|---------------------|
B|--------4-------4----|----------4-----4----|
G|--4/6-6---4-4h6------|----4/6-6---4h6------|
D|------------------6--|------------------6--|
A|---------------------|---------------------|
E|---------------------|---------------------|

Vi todo o amor que em mim ainda não passou. Eu já não sei bem aonde vou. Mas agora eu vou

E|--------------------------------|------4-4-------------|-------------|
B|------------------------4-------|--4-7-----7--7-4------|--------4----|
G|--------4-6-4-4---4-4------6-6--|-----------------6-4--|------6---4--|
D|--4-4-6---------------6---------|----------------------|--6-6--------|
A|--------------------------------|----------------------|-------------|
E|--------------------------------|----------------------|-------------|

Tentei falar mas você não soube ouvir. Tente admitir!

E|--------------------------------------|-----------------------|
B|--7/9-9-9-9---11-9--------7/9-9-9/11--|--9-1-9--------8/9-----|
G|-------------------11-8---------------|--------11-11------11--|
D|--------------------------------------|-----------------------|
A|--------------------------------------|-----------------------|
E|--------------------------------------|-----------------------|

Tentei voltar e pude ver o quanto errei. Te amei mais que a mim

E|--------------------------------------|--------------------|
B|--7/9-9-9-9---11-9--------7/9-9-9/11--|--11/12-11-9--------|
G|-------------------11-8---------------|-------------11-11--|
D|--------------------------------------|--------------------|
A|--------------------------------------|--------------------|
E|--------------------------------------|--------------------|

 Uh bem mais que a mim. Mais que a mim.

E|-------------------------|------------------|
B|--8/9--9-9-9-------------|--8/9-------------|
G|-------------11-8--8/11--|------11-11-11-9--|
D|-------------------------|------------------|
A|-------------------------|------------------|
E|-------------------------|------------------|

Clipes

Cifra Club Pro

Aproveite o Cifra Club com benefícios exclusivos e sem anúncios
7 dias grátis
Cifra Club Pro
Aproveite o Cifra Club com benefícios exclusivos e sem anúncios
7 dias grátis