busca

Nothing Else Matters

Metallica

G|----------------|--------------------|----------------|--------------------|
D|----------------|--------------------|----------------|--------------------|
A|---------7------|--5-----------------|---------7------|--5-----------------|
E|--0-------------|----------8----3--2-|--0-------------|----------8----3--2-|

G|----------------|--------------------|--------------|------------|----------------------------||
D|----------------|--------------------|--------------|------------|----------------------------||
A|---------7------|--5-----------------|--------2-----|--------7---|--------------7--(7)-------||
E|--0-------------|----------8----3--2-|--3-----------|--0---------|--0--0--0--0-----------3--2-||

 Verse 2
G|----------------|--------------------|----------------|--------------------|
D|----------------|--------------------|----------------|--------------------|
A|---------7------|--5-----------------|---------7------|--5-----------------|
E|--0-------------|----------8----3--2-|--0-------------|----------8----3--2-|

G|----------------|--------------------|--------------|------------|----------------------------||
D|----------------|--------------------|--------------|------------|----------------------------||
A|---------7------|--5-----------------|--------2-----|--------7---|--------------7--(7)-------||
E|--0-------------|----------8----3--2-|--3-----------|--0---------|--0--0--0--0-----------3--2-||


Verse 3
G|----------------|--------------------|----------------|--------------------|
D|----------------|--------------------|----------------|--------------------|
A|---------7------|--5-----------------|---------7------|--5-----------------|
E|--0-------------|----------8----3--2-|--0-------------|----------8----3--2-|

G|----------------|--------------------|--------------|------------|------------||
D|----------------|--------------------|--------------|------------|------------||
A|---------7------|--5-----------------|--------2-----|--------7---|--3----0----||
E|--0-------------|----------8----3--2-|--3-----------|--0---------|------------||

Chorus
G|-------------------|------------|-------------------|-------------|
D|-------------------|------------|-------------------|-------------|
A|--5--5--5--5--5--5-|--3-----0---|--5--5--5--5--5--5-|--3-----0----|
E|-------------------|------------|-------------------|-------------|

G|----------|---------|------------------||
D|----------|---------|------------------||
A|--5--5--5-|---------|--7---------------||
E|----------|--0------|--------0----3--2-||

Interlude
G|---------------------------|------------------------|--------------|
D|---------------------------|------------------------|--------------|
A|-----7---7--7-----7---7--7-|-----7---7--7-----7-----|--------------|
E|--0-----------0------------|--0------------0-----7-|--5------5----|

G|-----------|-------------------|-----------------|------------------|---------------|
D|-----------|-------------------|-----------------|------------------|---------------|
A|-----------|-------------------|--5----5--5--5/7-|-------7--------7-|---------------|
E|--5-----5/-|--8----8--8--7(h)8-|-----------------|--0-------0--0----|--0----0--3--2-|

G|---------------------------|------------------------|--------------|-------------|
D|---------------------------|------------------------|-------7------|-------------|
A|-----7---7--7-----7---7--7-|-----7---7--7-----7-----|------------7-|-------------|
E|--0-----------0------------|--0------------0-----7-|--5-----------|--5-----5--7-|

G|-------------------|---------------|-------------|-----------------||
D|-------------------|-------7-----7-|-------------|-----------------||
A|-------------------|--5-------5----|-7---------7-|--7--------------||
E|--8----8--8--7(h)8-|---------------|------0------|-------0----3--2-||

Guitar Solo
G|------------|----------------|------------|----------------|------------|
D|------------|----------------|------------|----------------|------------|
A|-------7--7-|--5--5----------|-------7--7-|--5--5----------|-------2----|
E|--0--0------|--------8--3--2-|--0--0------|--------8--3--2-|--3-------0-|

G|------------|------------|-----------|-------------||
D|------------|------------|-----------|-------------||
A|------------|------------|-----------|-------------||
E|--0---------|--(0)-------|-----------|-------------||

Clipes