busca

I Dont Wanna Hear It

Minor Threat

Tom: E
Tabbed by:  Rick
AIM:  rickrack97

Chords:

B5   (x244xx)
E5   (022xxx)
E2   (x799xx) or (xx245x)
F#5  (244xxx)
F#2  (x9-11-11xx)
C#5  (x466xx)

Intro/Verse:

      B5      E2        F#5
E|----------------------------------|
B|----------------------------------|
G|-4-4-4-4-9-9-9-9------------------|
D|-4-4-4-4-9-9-9-9-4-4-4-4-4-4-4-4--|
A|-2-2-2-2-7-7-7-7-4-4-4-4-4-4-4-4--|
E|-----------------2-2-2-2-2-2-2-2--|

Chorus:
         F#2  E2B5   C#5  B5 F#5
E|-------------------------------|
B|-------------------------------|
G|11-11-11-11-9-4--6-6-6-6-4-----|
D|11-11-11-11-9-4--6-6-6-6-4-4---|
A|-9--9--9--9-7-2--4-4-4-4-2-4---|
E|---------------------------2---|

Interlude:

E|----------------------------------|
B|----------------------------------|
G|-----------------4-4-4-4-9-9-9-9--|
D|-4-4-2-4--4-4-4--4-4-4-4-9-9-9-9--|
A|-4-4-2-4--4-4-4--2-2-2-2-7-7-7-7--|
E|-2-2-0-2--2-2-2-------------------|


That's it.  Later.

Clipes

Cifra Club Pro

Aproveite o Cifra Club com benefícios exclusivos e sem anúncios
7 dias grátis
Cifra Club Pro
Aproveite o Cifra Club com benefícios exclusivos e sem anúncios
7 dias grátis