busca

Small Man Big Mouth

Minor Threat

Tom: C
verse
E----------------------------|
B----------------------------|
G----------------------------|
D-------10101010--5-----5----|
A--1010--8-8-8-8--3-5---3-5--|
E---8-8-------------3-----3--|

chorus
E------------------------|
B------------------------|
G------------------------|
D-------5555-----9--999--|
A--2222-3333-777-7--777--|
E--0000------555---------|

end riff
E--------------------------------|
B--------------------------------|
G--------------------------------|
D--10101010-----------5-----5----|
A---8-8-8-8-10101010--3-5---3-5--|
E------------8-8-8-8----3-----3--|

timing:
verse.....6x
chorus....4x
verse.....4x
chorus....4x
end riff..4x

youll have to listen to the song really close to see why i wrote the chorus like that, 
soon youll catch on and figure it out. also the end riff might be wrong. thats what it 
like to me but its possible the end riff is just the verse. so if you have a good ear
listen to it and figure it out between the two. hope you get it.

Clipes

Cifra Club Pro

Aproveite o Cifra Club com benefícios exclusivos e sem anúncios
7 dias grátis
Cifra Club Pro
Aproveite o Cifra Club com benefícios exclusivos e sem anúncios
7 dias grátis