Andei Só

Natiruts

A7M
123
X02120
B
234
X24442
C#m
234
X46654
F#m7
1234
2X222X
G#m7
1234
4X444X
Tom: G
[Intro] C#m  G#m7  C#m  G#m7  F#m7  G#m7  F#m7  G#m7
        C#m  G#m7  C#m  G#m7  F#m7  G#m7  F#m7  B

[Parte 1 de 3]

#1t1##1t2#E|---------------------------------------------------|
B|---------------------------------------------------|
G|---------------------------------------------------|
D|------------2----------------2---------------------|
A|------2-4-4-----2------2-4-4-----2-----------------|
E|--4-4---------4---4-4----------4-------------------|#/1t2##/1t1#

[Parte 2 de 3]

#2t1##2t2#E|---------------------------------------------------|
B|---------------------------------------------------|
G|---------------------------------------------------|
D|---------------------------------------------------|
A|----4-2-------------------4-2----------------------|
E|--4-----4-3-2-2-2-0-4---4-----4-3-2-2-2-0-4--------|#/2t2##/2t1#

[Parte 1 de 3]

#3t1##3t2#E|---------------------------------------------------|
B|---------------------------------------------------|
G|---------------------------------------------------|
D|------------2----------------2---------------------|
A|------2-4-4-----2------2-4-4-----2-----------------|
E|--4-4---------4---4-4----------4-------------------|#/3t2##/3t1#

[Parte 3 de 3]

#4t1##4t2#E|---------------------------------------------------|
B|---------------------------------------------------|
G|---------------------------------------------------|
D|---------------------------------------------------|
A|----4-2-------------------4-2-------------2--------|
E|--4-----4-3-2-2-2-0-4---4-----4-3-2-2-2-0----------|#/4t2##/4t1#

[Primeira Parte]

C#m                     G#m7
   Preciso demonstrar pra ela
F#m7                B
    Que mereço seu tempo pra dizer
C#m                     G#m7
   Um pouco das ideias novas
F#m7              B
     E os lugares onde viajei
C#m                      G#m7
     Se ela botar fé na minha história
   F#m7                     B
 Que é de rocha e vem do coração
C#m                     G#m7
   Vou estender o pano mais bonito
F#m7                   B
     Feito na ilha de Madagascar
C#m                        G#m7
    Um Bob, um Djavan, um Jimmy na viola
F#m7                           B
    Com humildade de quem sabe onde quer chegar
C#m                    G#m7
    Reparei a flor no seu vestido
 F#m7                      B
Só guerreiro de áurea boa pode merecer
C#m                 G#m7
    E ela parou, olhou, sorriu
 F#m7           B          C#m   G#m7
Me deu um beijo e foi embora
        F#m7                  B
Não vi mais a gata, mas tenho a minha gaita
     C#m     G#m7  F#m7  B
Pra me consolar

[Refrão]

C#m   G#m7   F#m7          B
An___dei só       pela noite
C#m                   A7M              F#m7   B
   Cantei um Reggae pros cachorros na rua
C#m   G#m7   F#m7          B
An___dei só       pela noite
C#m                   A7M         F#m7      B
   Cantei um verso daquele velho samba pra lua
C#m   G#m7   F#m7          B
An___dei só       pela noite

[Solo] C#m  G#m7  C#m  G#m7  F#m7  G#m7  F#m7  B

[Parte 1 de 2]

#5t1##5t2#E|---------------------------------------------------|
B|---------------------------------------------------|
G|---------------------------------------------------|
D|------------2----------------2---------------------|
A|------2-4-4-----2------2-4-4-----2-----------------|
E|--4-4---------4---4-4----------4-------------------|#/5t2##/5t1#

[Parte 2 de 2]

#6t1##6t2#E|---------------------------------------------------|
B|---------------------------------------------------|
G|---------------------------------------------------|
D|---------------------------------------------------|
A|----4-2-------------------4-2-------------2--------|
E|--4-----4-3-2-2-2-0-4---4-----4-3-2-2-2-0----------|#/6t2##/6t1#

[Primeira Parte]

C#m                     G#m7
   Preciso demonstrar pra ela
F#m7                B
    Que mereço seu tempo pra dizer
C#m                     G#m7
   Um pouco das ideias novas
F#m7              B
     E os lugares onde viajei
C#m                      G#m7
     Se ela botar fé na minha história
F#m7                     B
     Que é louca mas não é besteira não
C#m                     G#m7
   Vou estender o pano mais bonito
F#m7                   B
     Feito na ilha de Madagascar
C#m                        G#m7
    Um Bob, um Djavan, um Jimmy na viola
F#m7                           B
    Com humildade de quem sabe onde quer chegar
C#m                    G#m7
    Reparei a flor no seu vestido
 F#m7                      B
Só guerreiro de áurea boa pode merecer
C#m                 G#m7
    E ela parou, olhou, sorriu
 F#m7           B          C#m   G#m7
Me deu um beijo e foi embora
        F#m7                  B
Não vi mais a gata, mas tenho a minha gaita
     C#m     G#m7  F#m7  B
Pra me consolar

[Refrão]

C#m   G#m7   F#m7          B
An___dei só       pela noite
C#m                   A7M              F#m7   B
   Cantei um Reggae pros cachorros na rua
C#m   G#m7   F#m7          B
An___dei só       pela noite
C#m                   A7M         F#m7      B
   Cantei um verso daquele velho samba pra lua

C#m   G#m7   F#m7          B
An___dei só       pela noite
C#m     A7M             F#m7  B
  Tudo bem a vida continua
C#m   G#m7   F#m7          B
An___dei só       pela noite

[Final] C#m  G#m7  C#m  G#m7  F#m7  G#m7  F#m7  B

[Parte 1 de 2]

#7t1##7t2#E|---------------------------------------------------|
B|---------------------------------------------------|
G|---------------------------------------------------|
D|------------2----------------2---------------------|
A|------2-4-4-----2------2-4-4-----2-----------------|
E|--4-4---------4---4-4----------4-------------------|#/7t2##/7t1#

[Parte 2 de 2]

#8t1##8t2#E|---------------------------------------------------|
B|---------------------------------------------------|
G|---------------------------------------------------|
D|---------------------------------------------------|
A|----4-2-------------------4-2-------------2--------|
E|--4-----4-3-2-2-2-0-4---4-----4-3-2-2-2-0----------|#/8t2##/8t1#
Composição: NatirutsColaboração e revisão: Getúlio VasconcelosWitório RiosGabriel RochaPedro Souzae mais 5
Videoaula Andei Só (aula de violão completa)