O Senhor É Bom

Nívea Soares

A
123
X02220
B
234
X24442
B/D#
1234
X6X477
C#m
234
X46654
E
123
022100
Tom: G
[Intro] C#m  A
        C#m  A

#1t1##1t2#E|-------------------------------------|
B|----------------------7--------------|
G|---/6-8--8/9--4--4/6-----------------|
D|-------------------------------------|
A|-------------------------------------|
E|-------------------------------------|#/1t2##/1t1#

 C#m            A                   C#m              A
Bendirei ao Senhor pra sempre, proclamarei que o senhor é bom
 C#m            A                   C#m              A
Bendirei ao Senhor pra sempre, proclamarei que o senhor é bom

          C#m         B     A
O Senhor reina, reinará com majestade
          C#m          B       A
O Senhor reina, em justiça e em verdade
          C#m         B      A
O Senhor reina, reinará com majestade
          C#m          B       A
O Senhor reina, em justiça e em verdade

      E
O Senhor é bom
      A
O Senhor é bom
       C#m         B          A
Sua misericórdia, dura, para sempre
      E
O Senhor é bom
      A
O Senhor é bom
       C#m         B          A
Sua misericórdia, dura, para sempre

( C#m  A )
( C#m  A )

#2t1##2t2#E|-------------------------------------|
B|----------------------7--------------|
G|---/6-8--8/9--4--4/6-----------------|
D|-------------------------------------|
A|-------------------------------------|
E|-------------------------------------|#/2t2##/2t1#

 C#m            A                   C#m              A
Bendirei ao Senhor pra sempre, proclamarei que o senhor é bom
 C#m            A                   C#m              A
Bendirei ao Senhor pra sempre, proclamarei que o senhor é bom

          C#m         B        A
O Senhor reina, reinará com majestade
          C#m          B           A
O Senhor reina, em justiça e em verdade
          C#m         B           A
O Senhor reina, reinará com majestade
          C#m          B          A
O Senhor reina, em justiça e em verdade

      E
O Senhor é bom
      A
O Senhor é bom
       C#m         B          A
Sua misericórdia, dura, para sempre
      E
O Senhor é bom
      A
O Senhor é bom
       C#m         B          A
Sua misericórdia, dura, para sempre
      E
O Senhor é bom
      A
O Senhor é bom
       C#m         B          A
Sua misericórdia, dura, para sempre
      E
O Senhor é bom
      A
O Senhor é bom
       C#m        B/D#  E     A
Sua misericórdia, dura, para sempre

[Solo] E  A  C#m  B  A
       E  A  C#m  B  A

#3t1##3t2#E|------------------------------------------------------------------------|
B|-----------------------------------------------------------12-14-16-17--|
G|--8-9-16--8-9-14---6---4---2------8-9-16--8-9-14---6---4----------------|
D|-------------------6---4---2-----------------------6---4----------------|
A|--6-7-14--6-7-12---4---2---0------6-7-14--6-7-12---4---2----------------|
E|------------------------------------------------------------------------|#/3t2##/3t1#

          C#m         B/D#     A
O Senhor reina, reinará com majestade
          C#m          B/D#       A
O Senhor reina, em justiça e em verdade
          C#m         B         A
O Senhor reina, reinará com majestade
          C#m          B/D#       A
O Senhor reina, em justiça e em verdade

      E
O Senhor é bom
      A
O Senhor é bom
       C#m         B          A
Sua misericórdia, dura, para sempre
      E
O Senhor é bom
      A
O Senhor é bom
       C#m         B          A
Sua misericórdia, dura, para sempre
      E
O Senhor é bom
      A
O Senhor é bom
       C#m         B          A
Sua misericórdia, dura, para sempre
Composição: Nívea SoaresColaboração e revisão: Thiago AlmeidaJosé AdrianoJuscelio Soaressamuel munize mais 10