Ousado Amor

Nívea Soares

Bb
234
X13331
Eb
234
X65343
F
234
133211
Gm
34
355333
Tom: G
[Intro] Gm  F  Eb  Bb
        Gm  F  Eb  Bb
        Gm  F  Eb  Bb
        Gm  F  Eb  Bb

#1t1##1t2#E|-6-6-6-6--5-5-5-5--------------|
B|-------------------8-8--6------|
G|--------------------------7~---|
D|-------------------------------|
A|-------------------------------|
E|-------------------------------|#/1t2##/1t1#

#2t1##2t2#E|-8-8-8-8--6-6-5-5--------------|
B|-------------------8-8--6------|
G|--------------------------7~---|
D|-------------------------------|
A|-------------------------------|
E|-------------------------------|#/2t2##/2t1#

#3t1##3t2#E|-6-6-6-6--5-5-5-5--------------|
B|-------------------8-8--6------|
G|--------------------------7~---|
D|-------------------------------|
A|-------------------------------|
E|-------------------------------|#/3t2##/3t1#

#4t1##4t2#E|-8-8-8-8--6-6-5-5--------------|
B|-------------------8-8--6------|
G|--------------------------7~---|
D|-------------------------------|
A|-------------------------------|
E|-------------------------------|#/4t2##/4t1#

Gm             F
Antes de eu falar

         Eb
Tu cantavas sobre mim
Gm              F
  Tu tens sido tão
       Eb
Tão bom  pra mim
Gm                  F
  Antes de eu respirar
              Eb
Sopraste Tua vida em mim
Gm              F
  Tu tens sido tão
       Eb
Tão bom  pra mim

[Refrão]

        Gm          F
Oh, impressionante, infinito
     Eb           Bb
E ousado amor de Deus
         Gm         F
Oh, que deixa as noventa e nove
 Eb              Bb
Só pra me encontrar
               Gm              F
Não posso comprá-lo,  nem merecê-lo
         Eb          Bb
Mesmo assim se entregou
        Gm          F
Oh, impressionante, infinito
     Eb           Bb
E ousado amor de Deus

( Gm  F  Eb  Bb )
( Gm  F  Eb  Bb )

#5t1##5t2#E|-6-6-6-6--5-5-5-5--------------|
B|-------------------8-8--6------|
G|--------------------------7~---|
D|-------------------------------|
A|-------------------------------|
E|-------------------------------|#/5t2##/5t1#

#6t1##6t2#E|-8-8-8-8--6-6-5-5--------------|
B|-------------------8-8--6------|
G|--------------------------7~---|
D|-------------------------------|
A|-------------------------------|
E|-------------------------------|#/6t2##/6t1#

Gm             F
  Inimigo eu fui
                Eb
Mas Teu amor lutou por mim
Gm              F
  Tu tens sido tão
       Eb
Tão bom  pra mim
Gm             F
  Não tinha valor
            Eb
Mas tudo pagou por mim
Gm              F
  Tu tens sido tão
       Eb
Tão bom  pra mim

[Refrão]

        Gm          F
Oh, impressionante, infinito
     Eb           Bb
E ousado amor de Deus
         Gm         F
Oh, que deixa as noventa e nove
 Eb              Bb
Só pra me encontrar
               Gm              F
Não posso comprá-lo,  nem merecê-lo
         Eb          Bb
Mesmo assim se entregou
        Gm          F
Oh, impressionante, infinito
     Eb           Bb
E ousado amor de Deus

( Gm  F  Eb  Bb )
( Gm  F  Eb  Bb )
( Gm  F  Eb  Bb )
( Gm  F  Eb  Bb )

#7t1##7t2#E|-6-6-6-6--5-5-5-5--------------|
B|-------------------8-8--6------|
G|--------------------------7~---|
D|-------------------------------|
A|-------------------------------|
E|-------------------------------|#/7t2##/7t1#

#8t1##8t2#E|-8-8-8-8--6-6-5-5--------------|
B|-------------------8-8--6------|
G|--------------------------7~---|
D|-------------------------------|
A|-------------------------------|
E|-------------------------------|#/8t2##/8t1#

#9t1##9t2#E|-6-6-6-6--5-5-5-5--------------|
B|-------------------8-8--6------|
G|--------------------------7~---|
D|-------------------------------|
A|-------------------------------|
E|-------------------------------|#/9t2##/9t1#

#10t1##10t2#E|-8-8-8-8--6-6-5-5--------------|
B|-------------------8-8--6------|
G|--------------------------7~---|
D|-------------------------------|
A|-------------------------------|
E|-------------------------------|#/10t2##/10t1#

[Ponte]

Gm                  F
  Traz luz para as sombras
           Eb                  Bb
Escala montanhas pra me encontrar
Gm           F
  Derruba muralhas
               Eb                  Bb
Destrói as mentiras, pra me encontrar

Gm                  F
  Traz luz para as sombras
           Eb                  Bb
Escala montanhas pra me encontrar
Gm           F
  Derruba muralhas
               Eb                  Bb
Destrói as mentiras, pra me encontrar

        Gm          F
Oh, impressionante, infinito
     Eb           Bb
E ousado amor de Deus
         Gm         F
Oh, que deixa as noventa e nove
 Eb              Bb
Só pra me encontrar
               Gm              F
Não posso comprá-lo,  nem merecê-lo
         Eb          Bb
Mesmo assim se entregou
        Gm          F
Oh, impressionante, infinito
     Eb           Bb
E ousado amor de Deus

( Gm  F  Eb  Bb )
( Gm  F  Eb  Bb )
( Gm  F  Eb  Bb )
( Gm  F  Eb  Bb )

#11t1##11t2#E|-6-6-6-6--5-5-5-5--------------|
B|-------------------8-8--6------|
G|--------------------------7~---|
D|-------------------------------|
A|-------------------------------|
E|-------------------------------|#/11t2##/11t1#

#12t1##12t2#E|-8-8-8-8--6-6-5-5--------------|
B|-------------------8-8--6------|
G|--------------------------7~---|
D|-------------------------------|
A|-------------------------------|
E|-------------------------------|#/12t2##/12t1#

#13t1##13t2#E|-6-6-6-6--5-5-5-5--------------|
B|-------------------8-8--6------|
G|--------------------------7~---|
D|-------------------------------|
A|-------------------------------|
E|-------------------------------|#/13t2##/13t1#

#14t1##14t2#E|-8-8-8-8--6-6-5-5--------------|
B|-------------------8-8--6------|
G|--------------------------7~---|
D|-------------------------------|
A|-------------------------------|
E|-------------------------------|#/14t2##/14t1#
Composição: Caleb CulverColaboração e revisão: Thiago AlmeidaJairo Luiz