Cria Em Mim

Renascer Praise

A
123
X02220
A/C#
1234
X4X255
A/E
123
0X2220
A9
12
X02200
B
234
X24442
B/D#
1234
X6X477
B/E
34
X79877
Bm7
34
X24232
C
123
X32010
C#
234
X46664
C#m7
34
X46454
C/E
123
032010
D
123
XX0232
E
123
022100
F#
234
244322
F#m
34
244222
F#m7
1234
2X222X
G
123
320003
G#m7
1234
4X444X
Tom: G
[Intro] E  A
        E  A/E

[Solo]

#1t1##1t2#E|-----------4--------------------|
B|-----5-5-5----------------------|
G|-------------6------------------| (4x)
D|--------------------------------|
A|--------------------------------|
E|--------------------------------|#/1t2##/1t1#

   E                   B/E                A
Levanto minha voz não posso me calar, preciso do Teu poder
   E                    B/E               A
Dependo desse amor sem Ti não sei viver, ressuscita-me
  F#m7         G#m7
Quero de novo Te sentir
  A                  B
Queimando como a primeira vez
  F#m7             G#m7
Cheio do Espirito Te adorar 
    A9                 B         E
Me limpa restaura me aceita, Senhor

#2t1##2t2#E|----------7-4-------------------|
B|----4-5-7-----------------------|
G|--------------------------------|
D|--------------------------------|
A|--------------------------------|
E|--------------------------------|#/2t2##/2t1#

E         B/D#       A    F#m7            E
 Cria em mim um coração que seja o Teu lugar 
            B/D#       A       F#m7            E    ( G  F#m )
Transforma-me faça de mim, um hino pro Teu louvor 

#3t1##3t2#E|--------------------------------|
B|--------------------------------|
G|--------------------------------|
D|-------2-4-2--------------------|
A|---2-4--------------------------|
E|--------------------------------|#/3t2##/3t1#

( B  C#  E  F#  E )

   E                   B/E                A
Levanto minha voz não posso me calar, preciso do Teu poder
   E                    B/E               A
Dependo desse amor sem Ti não sei viver, ressuscita-me
  F#m7         G#m7
Quero de novo Te sentir
  A                  B
Queimando como a primeira vez
  F#m7             G#m7
Cheio do Espirito Te adorar 
    A9                 B         E
Me limpa restaura me aceita, Senhor 

E         B/D#       A    F#m7            E
 Cria em mim um coração que seja o Teu lugar 
            B/D#       A       F#m7            E    ( G  F#m )
Transforma-me faça de mim, um hino pro Teu louvor 
E         B/D#       A    F#m7            E
 Cria em mim um coração que seja o Teu lugar 
            B/D#       A       F#m7            E    ( G  F#m )
Transforma-me faça de mim, um hino pro Teu louvor 

( E  B/D#  A/C#  E )
( E  B/D#  A/C#  E )

#4t1##4t2#E|------7-4-----7-4-----5-4------------------|
B|----5-----7-5-----7-------5----------------|
G|-------------------------------------------|
D|-------------------------------------------|
A|-------------------------------------------|
E|-------------------------------------------|#/4t2##/4t1#

E         C D E          G  A    E
 Cria em mim    cria em mim, Senhor
         C           C/E          D  E
Cria em mim, um coração igual ao Teu
E         B          A    F#m7            E     ( G  F#m )
 Cria em mim um coração que seja o Teu lugar 

C#m7          Bm7        A      F#m7          E  D  C
  Transforma-me faça de mim, hino pro Teu louvor 

                 D   E  D   G     A         E  D  C
Hino pro Teu louvor,       Hino pro Teu louvor 
                 E   D  C  E
Hino pro Teu louvor
Composição: Bispa Sônia Hernandes / Pr. Esdras Gallo / Pr. OseasColaboração e revisão: Lucas NeckLucas Kappaunfelipe henriqueronilson e mais 3