busca

Cria Em Mim

Renascer Praise

Tom: A
[Intro] E  A
        E  A/E

[Solo]

E|-----------4--------------------|
B|-----5-5-5----------------------|
G|-------------6------------------| (4x)
D|--------------------------------|
A|--------------------------------|
E|--------------------------------|

   E                   B/E                A
Levanto minha voz não posso me calar, preciso do Teu poder
   E                    B/E               A
Dependo desse amor sem Ti não sei viver, ressuscita-me
  F#m7         G#m7
Quero de novo Te sentir
  A                  B
Queimando como a primeira vez
  F#m7             G#m7
Cheio do Espirito Te adorar 
    A9                 B         E
Me limpa restaura me aceita, Senhor

E|----------7-4-------------------|
B|----4-5-7-----------------------|
G|--------------------------------|
D|--------------------------------|
A|--------------------------------|
E|--------------------------------|

E         B/D#       A    F#m7            E
 Cria em mim um coração que seja o Teu lugar 
            B/D#       A       F#m7            E    ( G  F#m )
Transforma-me faça de mim, um hino pro Teu louvor 

E|--------------------------------|
B|--------------------------------|
G|--------------------------------|
D|-------2-4-2--------------------|
A|---2-4--------------------------|
E|--------------------------------|

( B  C#  E  F#  E )

   E                   B/E                A
Levanto minha voz não posso me calar, preciso do Teu poder
   E                    B/E               A
Dependo desse amor sem Ti não sei viver, ressuscita-me
  F#m7         G#m7
Quero de novo Te sentir
  A                  B
Queimando como a primeira vez
  F#m7             G#m7
Cheio do Espirito Te adorar 
    A9                 B         E
Me limpa restaura me aceita, Senhor 

E         B/D#       A    F#m7            E
 Cria em mim um coração que seja o Teu lugar 
            B/D#       A       F#m7            E    ( G  F#m )
Transforma-me faça de mim, um hino pro Teu louvor 
E         B/D#       A    F#m7            E
 Cria em mim um coração que seja o Teu lugar 
            B/D#       A       F#m7            E    ( G  F#m )
Transforma-me faça de mim, um hino pro Teu louvor 

( E  B/D#  A/C#  E )
( E  B/D#  A/C#  E )

E|------7-4-----7-4-----5-4------------------|
B|----5-----7-5-----7-------5----------------|
G|-------------------------------------------|
D|-------------------------------------------|
A|-------------------------------------------|
E|-------------------------------------------|

E         C D E          G  A    E
 Cria em mim    cria em mim, Senhor
         C           C/E          D  E
Cria em mim, um coração igual ao Teu
E         B          A    F#m7            E     ( G  F#m )
 Cria em mim um coração que seja o Teu lugar 

C#m7          Bm7        A      F#m7          E  D  C
  Transforma-me faça de mim, hino pro Teu louvor 

                 D   E  D   G     A         E  D  C
Hino pro Teu louvor,       Hino pro Teu louvor 
                 E   D  C  E
Hino pro Teu louvor

Clipes

Cifra Club Pro

Aproveite o Cifra Club com benefícios exclusivos e sem anúncios
Cifra Club Pro
Aproveite o Cifra Club com benefícios exclusivos e sem anúncios