busca

Acalanto

Roberto Carlos

Tom: C
(intro)

   C C5+ Dm  G7 C7 F F5+ Gm  C7  F G
E |-----------------------------------
B |---------------------------------0-
G |---------------0-2-2-2-0-2-3-0-2---
D |-------0-2-3-0---------------------
A |-3-3-3-----------------------------
E |-----------------------------------

 D/F# Em Am Dm E7 Am Am7+ Am7 D7/9   G7
E |-------------------------------------|
B |-------------------------------------|
G |-2-0-----0---------------------------|
D |-----2-3---2-0-----------2-0-------0-|
A |---------------3-3-3-3-3-----3-2-3---|
E |-------------------------------------|

 C      C5+  Dm   G7     C7
É tão tarde, a manhã já vem...
 F      F5+   Gm   C7    F
Todos dormem, a noite também.
G  D/F# Em  Am Dm    E7     Am
Só eu   ve__lo por você meu bem.
  Am7+ Am7     D7/9      G7
Dorme anjo, o boi pega neném.
 C    C5+  Dm    G7   C7
Lá no céu deixam de cantar
 F    F5+   Gm    C7   F
Os anjinhos foram se deitar
G  D/F# Em  Am    Dm     E7    Am
Ma_mãe__zi__nha precisa descansar
  Am7+  Am7   D7/9          G7
Dorme anjo, papai vai lhe ninar.
 C         Am  F
Boi, boi, boi, boi da cara preta,
 G7         F             G7       C
Pega essa menina que tem medo de careta.

Clipes

Cifra Club Pro

Aproveite o Cifra Club com benefícios exclusivos e sem anúncios
Cifra Club Pro
Aproveite o Cifra Club com benefícios exclusivos e sem anúncios