É Preciso Saber Viver

Roberto Carlos

A
123
X02220
Bm
234
X24432
D
123
XX0232
D7
123
XX0212
D7+
123
XX0222
E
123
022100
G
123
320003
Gm
34
355333
Tom: G
[Intro] D  D7+  D7  G  Gm  D  Bm  E  G  A
 
        D
Quem espera que a vida
      D7+
Seja feita de ilusão
       D7
Pode até ficar maluco
       G
Ou morrer na solidão
      Gm
É preciso ter cuidado
          D            Bm
Pra mais tarde não sofrer
E          G       A
É preciso saber viver

      D
Toda pedra no caminho
      D7+
Você deve retirar
       D7
Numa flor que tem espinhos
      G
Você pode se arranhar
      Gm
Se o bem e o mal existem
   D         Bm
Você pode escolher
E          G       A
É preciso saber viver

G          D       Bm
É preciso saber viver
G          D       Bm
É preciso saber viver
G          D       Bm
É preciso saber viver
 E       G A
Saber viver

[Solo]  D  D7+  D7  G  Gm  D  Bm  E  G  A

#1t1##1t2#E|------10-8-10------------------------------------|
B|-8h10---------8/10-------------------------------|
G|-------------------10-9--------------------------|
D|-------------------------------------------------|
A|-------------------------------------------------|
E|-------------------------------------------------|#/1t2##/1t1#

#2t1##2t2#E|------10-8-10-13-15-13-15/17--15-13-15-------14--|
B|-8h10-------------------------------15-15-14-14--|
G|-------------------------------------------------|
D|-------------------------------------------------|
A|-------------------------------------------------|
E|-------------------------------------------------|#/2t2##/2t1#

#3t1##3t2#E|-8b(10)-5------------------3---------------------|
B|----------8b(10)-6-----6-----3-------------------|
G|-------------------5h7---------4-----------------|
D|-------------------------------------------------|
A|-------------------------------------------------|
E|-------------------------------------------------|#/3t2##/3t1#

      D
Toda pedra no caminho
      D7+
Você deve retirar
       D7
Numa flor que tem espinhos
      G
Você pode se arranhar
      Gm
Se o bem e o mal existem
   D         Bm
Você pode escolher
E          G       A
É preciso saber viver

G          D       Bm
É preciso saber viver
G          D       Bm
É preciso saber viver
G          D       Bm
É preciso saber viver
 E       G A
Saber viver
G          D       Bm
É preciso saber viver
G          D       Bm
É preciso saber viver
G          D       Bm
É preciso saber viver
 E       G A
Saber viver
Composição: Erasmo Carlos / Roberto CarlosColaboração e revisão: Antonio SiqueiraMarcos PauloLucas Kappaunkianey paze mais 9