É Preciso Saber Viver

Roberto Carlos

Bb
234
X13331
Bbm6
1234
6X566X
C7
1234
X3231X
Dm
123
XX0231
Dm7
34
X57565
F
234
133211
F7
34
131211
F7M
1234
1X221X
G
123
320003
G7
34
353433
Tom: G
[Primeira Parte]

        F
Quem espera que a vida
      F7M
Seja feita de ilusão
       F7
Pode até ficar maluco
      Bb
Ou viver na solidão
      Bbm6
É preciso ter cuidado
          F            Dm7
Pra mais tarde não sofrer
G7         Bb       C7
É preciso saber viver

      F
Toda pedra no caminho
      F7M
Você deve retirar
       F7
Numa flor que tem espinhos
      Bb
Você pode se arranhar
      Bbm6
Se o bem e o mal existem
      F         Dm7
Você pode escolher
G7         Bb       C7
É preciso saber viver

[Refrão]

Bb          F       Dm7
É preciso saber viver
Bb          F       Dm7
É preciso saber viver
Bb          F       Dm7
É preciso saber viver
 G7         
Saber viver
 Bb      C7
Saber viver

[Solo] F  F7M  F7  Bb  Bbm6 
       F  Dm  G  Bb  C7 
       F  F7M  F7  Bb  Bbm6 
       F  Dm  G  Bb  C7 

#1t1##1t2#E|------10-8-10-------------------10-8-10-13|
B|-8/10---------8/10---------8/10-----------|
G|-------------------10~--9~----------------|
D|------------------------------------------|
A|------------------------------------------|
E|------------------------------------------|#/1t2##/1t1#

#2t1##2t2#E|-15-13-15b17--15-13-15--------------------|
B|-----------------------15~----------------|
G|------------------------------------------|
D|------------------------------------------|
A|------------------------------------------|
E|------------------------------------------|#/2t2##/2t1#

#3t1##3t2#E|-13------------13--8/10-8-----------------|
B|----14~--13/14------------10-8b10r8-------|
G|------------------------------------10-7--|
D|-----------------------------------------9|
A|------------------------------------------|
E|------------------------------------------|#/3t2##/3t1#

#4t1##4t2#E|------------------------------------------|
B|-----------8------------------------------|
G|-0---0-0---------0--8--8--8--8------------|
D|-7h9---7h9---7h9----7--7--7--7------------|
A|--------------------10-10-10-10-----------|
E|--------------------8--8--8--8------------|#/4t2##/4t1#

[Primeira Parte]

      F
Toda pedra no caminho
      F7M
Você pode retirar
       F7
Numa flor que tem espinhos
      Bb
Você pode se arranhar
      Bbm6
Se o bem e o mal existem
      F         Dm7
Você pode escolher
G7         Bb         C7
É preciso saber viver

[Refrão]

Bb          F       Dm7
É preciso saber viver
Bb          F       Dm7
É preciso saber viver
Bb          F       Dm7
É preciso saber viver
 G7         
Saber viver
 Bb      C7
Saber viver

Bb          F       Dm7
É preciso saber viver
Bb          F       Dm7
É preciso saber viver
Bb          F       Dm7
É preciso saber viver
 G7         
Saber viver
 Bb      C7  F
Saber viver
Composição: Erasmo Carlos / Roberto CarlosColaboração e revisão: Thiago AlmeidaVinícius DiasAntonio SiqueiraMarcos Pauloe mais 11