busca

Eu Te Amo

Roberto Carlos

Tom: A
                       Bm7/9
Foi tanto que eu te amei
Em7    Bm7/9
          E não sabia
Em7                       Bm7/9      G7+
         Que pouco a pouco eu
D 7+/F#     Em7  A7
Eu te perdia
         D7+
Eu te amo
          Em7        Bm7/9
          E aquele louco amor
          Em7        Bm7/9
          Inesquecível
Em7                 Bm7/9  G7+
          Tirar do coração
D 7+/F#  Em7 A7
É impossível
          D7+ F#7
Eu te amo
Bm7/9          F#m7
Te amei demais
Bm7/9          F#m7
Enlouqueci
Bm7/9     C7/9 B7/9-
Brigas banais
     Em7 A7
Te perdi
Em7                  Bm7/9
         O tempo já passou
Em7                  Bm7/9
         E eu não consigo
Em7                  Bm7/9  G7+
         Calar meu coração
 D7+/F#         Em7
E às vezes digo
        D7+
Eu te amo

(SOLO)

 Fm7         Cm7/9             Fm7         Cm7/9    Fm7                  Cm7/9
1---------------------------\---------------------\--------------------------
2----------------3------4---\-------------3-------\--------------3-----4-----
3--------------------5------\-----------------5---\-----------------5---------
4-------3--5--6-------------\----3--5--6----------\-----3--5--6------------
5---------------------------\---------------------\--------------------------
6---------------------------\---------------------\--------------------------

        G#7+    A#7             D#7+    G/A    F#7
1---------------------------\--------------------\
2-------4---1---------------\--------------------\
3--------------1--0---------\--------------------\
4---------------------3-----\-----------5--------\
5---------------------------\--3--1--3-----------\
6---------------------------\--------------------\

Bm7/9        F#m7
Te amei de mais.................

Clipes