busca

Fly The Flag Intro

Stiff Little Fingers

Tom: G
Fly The Flag

Intro:
|--2-2-3-2--2-3-3-2---2-2-3-2--2-3-3-2---2-2-3-2--2-3-3-2-|
|--3-3-3-3--3-3-3-3---3-3-3-3--3-3-3-3---3-3-3-3--3-3-3-3-|
|---------------------------------------------------------|
|---------------------------------------------------------|
|---------------------------------------------------------|
|---------------------------------------------------------|

|--0-3-2--2-3-3-2--0--3--2--------------------------------|
|--3-3-3--3-3-3-3--3--3--3--------------------------------|
|---------------------------------------------------------|
|---------------------------------------------------------|
|---------------------------------------------------------|
|---------------------------------------------------------|

This is the intro.  I would do the rest but i havent got that far yet but it should be easy......

Clipes