busca

Jesus Me Achou

Thalles Roberto

Tom: C
[Intro] F7M  G7(13)  Em7  A7(#5)  
        F7M  G7(13)  Em7  A7(#5)

[Solo]
             F7M              G7(13)              Em7                    A7(#5)
E|---------------------------------------------------------------------------------------|
B|-------5-------------------7-5~-5-------------5-------------------------------------5~-|
G|-4-5-7---7~-7-4-5----4-5-7--------7-5---4-5-7---7~-7-4-5---7-5-4--4-4-5--5-5-7--7-7----|
D|---------------------------------------------------------------------------------------|
A|---------------------------------------------------------------------------------------|
E|---------------------------------------------------------------------------------------|

             F7M             G7(13)          A7(#5)
E|----------------------------------------------------|
B|-------5-------------------7-5~-5-------------------|
G|-4-5-7---7~-7-4-5----4-5-7--------7-5---7-5~~--5\3--|
D|----------------------------------------------------|
A|----------------------------------------------------|
E|----------------------------------------------------|

        Dm7(9)  F/G
Eu estava   lon    ge
        Dm7(9)  F/G
Estava perdi     do
        Dm7(9)  F/G
Desacreditaa     do
               C7M  A7(#5)
Mas, Jesus me achou

           Dm7(9)  F/G
Me deu um abra      ço
                                 Dm7(9)  F/G
Desses que tira o pé da gente do chão, do chão, do chão, do chão
            Dm7(9)  F/G
Eu sou a Sua caaasa  agora
      C7M     A7(#5)
E Ele é o meu amor

[Refrão]

             F7M
Eu me lembro muito bem
               F/G
De quando eu nem era Seu
             Em7
E hoje não existe mais
             A7(#5)
Imaginar a minha vida sem Ti
           F7M
Sou outra pessoa, sim
          F/G
Nem parece que sou eu
          Em7
É Jesus vivendo em mim
        A7(#5)
É a Sua vida conduzindo a minha

        F7M
Hoje eu sou Sua vida e em minha vida
                G7(13)
Tenho um sorriso lindo, nem preciso fingir
             Em7            A7(#5)
Eu carrego a glória de Deus

        Dm7(9)  G7(13)
Eu estava ceee     go
       Dm7(9)  G7(13)
E vivia soool    to
            Dm7(9)  G7(13)
No caminho erraa     do
          C7M      A7(#5)
Mas, Jesus me achou

           Dm7(9)  F/G
Me deu um abra      ço
                                  Dm7(9)  F/G
Desses que tira o pé da gente do chão, do chão, do chão
             Dm7(9)  F/G
Eu sou a Sua caaasa  agora
      C7M     A7(#5)
E Ele é o meu amor

[Refrão]

             F7M
Eu me lembro muito bem
             F/G
De quando eu nem era Seu
             Em7
E hoje não existe mais
             A7(#5)
Imaginar a minha vida sem Ti
           F7M
Sou outra pessoa, sim
           F/G
Nem parece que sou eu
          Em7         A7(#5)
É Jesus vivendo em mim

Base solo: F7M  G7(13)  Em7  A7(#5)  F7M  G7(13)  Em7                       A7(#5)
                                     eu me lembro muito bem muito beeeiim iuiuiuiui

[Solo]

             F7M               G7(13)               Em7                   A7(#5)
E|---------------------------------------------------------------------------------------|
B|-------5-------------------7-5~-5-------------5-------------------------------------5~-|
G|-4-5-7---7~-7-4-5----4-5-7--------7-5---4-5-7---7~-7-4-5---7-5-4--4-4-5--5-5-7--7-7----|
D|---------------------------------------------------------------------------------------|
A|---------------------------------------------------------------------------------------|
E|---------------------------------------------------------------------------------------|

             F7M            G7(13)           Em7                     A7(#5)
E|--------------------------------------------------5-3-------------------3---5~~-|
B|-------5-------------------7-5~-5---------5~~---5-----5-3-3-------3-5-5---5-----|
G|-4-5-7---7~-7-4-5----4-5-7--------7-5---7-------------------5-2-5---------------|
D|--------------------------------------------------------------------------------|
A|--------------------------------------------------------------------------------|
E|--------------------------------------------------------------------------------|

[Refrão]

             F7M
Eu me lembro muito bem
               G7(13)
De quando eu nem era Seu
             Em7
E hoje não existe mais
            A7(#5)
Imaginar a minha vida sem Ti
           F7M
Sou outra pessoa, sim
          G7(13)
Nem parece que sou eu
          Em7
É Jesus vivendo em mim
       A7(#5)
É a Sua vida conduzindo a minha

        F7M
Hoje eu sou Sua vida e em minha vida
                 F/G
Tenho um sorriso lindo, nem preciso fingir
             Em7          A7(#5)
Eu carrego a glória de Deus

          Dm7(9)  F/G
Eu estava   lon    ge
     Dm7(9)  G7(13)
Estava perdi     do
        Dm7(9)  F/G  G7(b13)
Desacreditaa     do
               C7M
Mas, Jesus me achou

Clipes