busca

O Cara Errado

Wesley Safadão

Tom: Eb
[Intro] Ab  Bb  Cm7  Eb6
        Ab  Bb  Cm7  Eb6

E|------------------------------------------|
B|-4-4-4-4-3-----4-4-4-4-3-6----------------|
G|-----------5---------------3--------------|
D|------------------------------------------|
A|------------------------------------------|
E|------------------------------------------|

E|------------------------------------------|
B|-6-6-6/8--6-6-4-4-3-3---3h4---------------|
G|----------------------5-----5-------------|
D|------------------------------------------|
A|------------------------------------------|
E|------------------------------------------|

E|------------------------------------------|
B|--4-4-3-----4-4-4-4-3-6-------------------|
G|--------5---------------3-----------------|
D|------------------------------------------|
A|------------------------------------------|
E|------------------------------------------|

E|------------------------------------------|
B|-6-6-6/8--6-6-4-4-3-3---3h4---------------|
G|----------------------5-----5-------------|
D|------------------------------------------|
A|------------------------------------------|
E|------------------------------------------|

[Primeira Parte]

    Ab                     Bb
Eu sei que você quer alguém
                     Gm
Pra apresentar pros pais
                       Cm7 
Postar uma foto junto nas suas redes sociais

 Ab
Viajar fim de semana
Bb
   Combinar os pijamas
Gm
   Beber no mesmo copo
Cm7                 Ab
   Comer no mesmo prato
                           Bb
Desculpa, eu sou o cara errado

[Refrão]

                        Ab
Eu não nasci pra ser mozão
                    Bb
Nasci pra ser contatinho
     Cm7                  Eb
Meu coração só é feliz sozinho
                       Ab
Eu não nasci pra se mozão
                    Bb
Nasci pra ser contatinho
      Cm7                     Eb
Não quero te levar pro mal caminho

                        Ab
Eu não nasci pra ser mozão
                    Bb
Nasci pra ser contatinho
     Cm7                  Eb
Meu coração só é feliz sozinho
                       Ab
Eu não nasci pra se mozão
                    Bb
Nasci pra ser contatinho
      Cm7                     Eb
Não quero te levar pro mal caminho

[Solo] Ab  Bb  Cm7  Eb6
       Ab  Bb  Cm7  Eb6

E|------------------------------------------|
B|-4-4-4-4-3-----4-4-4-4-3-6----------------|
G|-----------5---------------3--------------|
D|------------------------------------------|
A|------------------------------------------|
E|------------------------------------------|

E|------------------------------------------|
B|-6-6-6/8--6-6-4-4-3-3---3h4---------------|
G|----------------------5-----5-------------|
D|------------------------------------------|
A|------------------------------------------|
E|------------------------------------------|

E|------------------------------------------|
B|--4-4-3-----4-4-4-4-3-6-------------------|
G|--------5---------------3-----------------|
D|------------------------------------------|
A|------------------------------------------|
E|------------------------------------------|

E|------------------------------------------|
B|-6-6-6/8--6-6-4-4-3-3---3h4---------------|
G|----------------------5-----5-------------|
D|------------------------------------------|
A|------------------------------------------|
E|------------------------------------------|

[Primeira Parte]

    Ab                     Bb
Eu sei que você quer alguém
                     Gm
Pra apresentar pros pais
                       Cm7 
Postar uma foto junto nas suas redes sociais

 Ab
Viajar fim de semana
Bb
   Combinar os pijamas
Gm
   Beber no mesmo copo
Cm7                 Ab
   Comer no mesmo prato
                           Bb
Desculpa, eu sou o cara errado

[Refrão]

                        Ab
Eu não nasci pra ser mozão
                    Bb
Nasci pra ser contatinho
     Cm7                  Eb
Meu coração só é feliz sozinho
                       Ab
Eu não nasci pra se mozão
                    Bb
Nasci pra ser contatinho
      Cm7                     Eb
Não quero te levar pro mal caminho

                        Ab
Eu não nasci pra ser mozão
                    Bb
Nasci pra ser contatinho
     Cm7                  Eb
Meu coração só é feliz sozinho
                       Ab
Eu não nasci pra se mozão
                    Bb
Nasci pra ser contatinho
      Cm7                     Eb
Não quero te levar pro mal caminho

[Final] Ab  Bb  Cm7  Eb6
        Ab  Bb  Cm7  Eb6
 
E|------------------------------------------|
B|-4-4-4-4-3-----4-4-4-4-3-6----------------|
G|-----------5---------------3--------------|
D|------------------------------------------|
A|------------------------------------------|
E|------------------------------------------|

E|------------------------------------------|
B|-6-6-6/8--6-6-4-4-3-3---3h4---------------|
G|----------------------5-----5-------------|
D|------------------------------------------|
A|------------------------------------------|
E|------------------------------------------|

E|------------------------------------------|
B|--4-4-3-----4-4-4-4-3-6-------------------|
G|--------5---------------3-----------------|
D|------------------------------------------|
A|------------------------------------------|
E|------------------------------------------|

E|------------------------------------------|
B|-6-6-6/8--6-6-4-4-3-3---3h4---------------|
G|----------------------5-----5-------------|
D|------------------------------------------|
A|------------------------------------------|
E|------------------------------------------|

Clipes