Na Hora de Amar

Gusttavo Lima

A
123
X02220
A9
12
X02200
Ab
234
431114
Ab7M
1234
4X554X
Am
123
X02210
Am7
12
X02010
Bb9
34
X13311
Bm7
34
X24232
C9
34
X35533
Cm
234
X35543
D9
12
XX0230
D9/F#
123
2X0230
Eb9
34
X68866
Em
12
022000
Fm
34
133111
G
123
320003
Tom: G
[Intro] Em  C9  D9
        Em  C9  D9

#1t1##1t2#E|----------------------------------------------------|
B|----7-7h8---7---5-5--7--7h8-7-----------------------|
G|-/9-7-7h9---7---5-5--7--7h9-7--9--7/9-7-------------|
D|-------------------------------9--7/9-7-------------|
A|----------------------------------------------------|
E|----------------------------------------------------|#/1t2##/1t1#

#2t1##2t2#E|----------------------------------------------------|
B|----7-7h8---7---5-5--7--7h8-7-----------------------|
G|-/9-7-7h9---7---5-5--7--7h9-7--9--7/9-7-------------|
D|-------------------------------9--7/9-7-------------|
A|----------------------------------------------------|
E|----------------------------------------------------|#/2t2##/2t1#

[Primeira Parte]

       Em           C9       D9
Seu olhar sempre está muito longe
         Em          Am7      D9
Em um lugar que se chama solidão
            Em   C9           D9    
Chego a pensar que você se esconde 
             A9  Am
Da minha paixão 

           Em        C9           D9
Sempre a voar, pensamento tão distante
            Em    C9             D9
E eu me pergunto: o que foi que fiz?
           Em      C9            D9   
Mas são palavras que ninguém responde
             A9  Am
Te vejo infeliz

[Refrão]

             D9           A9
Você deve estar com medo de contar
          Bm7            G  
Que seu amor por mim acabou
           Em  D9/F#  G       A9
Sempre fingiu,       nada sentiu
             Bm7  A9
Na hora de amar

[Segunda Parte]
    
           Em         C9           D9
Eu vejo o sol se afastando no horizonte
         Em       C9           D9
Igual você que se escondeu de mim
             Em     C9               D9
Não sei porque um amor que era tão grande
               A9  Am
Foi ficando assim

[Refrão]

             D9           A9
Você deve estar com medo de contar
          Bm7            G  
Que seu amor por mim acabou
           Em  D9/F#  G       A9
Sempre fingiu,       nada sentiu

             D9            A9
Na hora de amar, tem medo de contar
          Bm7            G  
Que seu amor por mim acabou
           Em  D9/F#  G       A9
Sempre fingiu,       nada sentiu
             Bm7  A9
Na hora de amar

#3t1##3t2#E|----------------/9-9~~------------------------------|
B|----3-5-5/7-7\5-------------------------------------|
G|-/4-------------------------------------------------|
D|----------------------------------------------------|
A|----------------------------------------------------|
E|----------------------------------------------------|#/3t2##/3t1#

[Ponte]

Em         G            D9      C9
  A gente sente quando tudo acabou
Em            G           D9
  Quando o encanto da paixão sumiu, oh, oh
Em         G            D9      A         C9
  Um sentimento que só meu coração descobriu
           A9    
Uoh, oh oh oh oh

[Refrão]

   Bb9         Eb9               Bb9
Você deve estar, com medo de contar
          Cm             Ab             Fm  Ab      Bb9
Que seu amor por mim acabou, sempre fingiu nada sentiu
             Eb9
Na hora de amar (insensível)
          Bb9
Tem medo de contar
          Cm             Ab             Fm  Ab      Bb9
Que seu amor por mim acabou, sempre fingiu nada sentiu
             Cm  Ab7M
Na hora de amar
Composição: César Augusto / Mats Arne Persson / Per Hakan GessleColaboração e revisão: Lucas KappaunLucas KappaunEduardo SilvaKaisa Victorinoe mais 3