Pronta Pra Trair

Yasmin Santos

Am7
12
X02010
B7
1234
X21202
C
123
X32010
Em
12
022000
Em/F#
12
2X200X
Em/G
1234
3X245X
G
123
320003
Tom: G
[Intro] Em  C  Em

#1t1##1t2#E|-----3-2h3p2------------------------------|
B|-------------5-3-0------------------------|
G|-2/4--------------------------------------|
D|------------------------------------------|
A|------------------------------------------|
E|------------------------------------------|#/1t2##/1t1#

[Primeira Parte]

Em
  Você aprontando, eu te perdoando
              
Foi enchendo minha paciência
                                 Am7
Até que transbordou, larguei de mão
                     C
Não vou sobrar mais não
             B7
É que o seu caso infelizmente não tem solução

[Pré-Refrão]

              Am7
Agora não precisa atuar na minha frente
                            Em
Ensaiar discurso pra contar   mentira
                      Am7
Não vou mais me importar

Já tomei coragem
                         B7
Cê fez o favor de me preparar

[Refrão]

                 G
Tô pronta pra trair
Joguei fora a vergonha
Que eu tinha na cara
              Em
Vou sair por aí
E na primeira boca vou fazer parada
                     Am7
Não vai ser na sua frente
Cê não vai saber com quem
                C                     B7
Aprenda como eu aprendi a dividir alguém 

                 G
Tô pronta pra trair
Joguei fora a vergonha
Que eu tinha na cara
              Em
Vou sair por aí
E na primeira boca vou fazer parada
     Em/F#  Em/G        Am7
Não vai    ser na sua frente
Cê não vai saber com quem
                C                     B7
Aprenda como eu aprendi a dividir alguém 

E me divide também

[Solo] Em  B7

#2t1##2t2#E|------------------------------------------|
B|------------------------------------------|
G|-4-5-4h5p4---4----------------------------|
D|-----------7---5\2-2----------------------|
A|------------------------------------------|
E|------------------------------------------|#/2t2##/2t1#

#3t1##3t2#E|------------------------------------------|
B|------------------------------------------|
G|---0-5-4-2------------2-4-----------------|
D|-2---------5-4-2-2--------2---------------|
A|-------------------2----------------------|
E|------------------------------------------|#/3t2##/3t1#

[Primeira Parte]

Em
  Você aprontando, eu te perdoando
              
Foi enchendo minha paciência
                                 Am7
Até que transbordou, larguei de mão
                     C
Não vou sobrar mais não
             B7
É que o seu caso infelizmente não tem solução

[Pré-Refrão]

              Am7
Agora não precisa atuar na minha frente
                            Em
Ensaiar discurso pra contar   mentira
                      Am7
Não vou mais me importar

Já tomei coragem
                         B7
Cê fez o favor de me preparar

[Refrão]

                 G
Tô pronta pra trair
Joguei fora a vergonha
Que eu tinha na cara
              Em
Vou sair por aí
E na primeira boca vou fazer parada
                     Am7
Não vai ser na sua frente
Cê não vai saber com quem
                C                     B7
Aprenda como eu aprendi a dividir alguém 

                 G
Tô pronta pra trair
Joguei fora a vergonha
Que eu tinha na cara
              Em
Vou sair por aí
E na primeira boca vou fazer parada
                     Am7
Não vai ser na sua frente
Cê não vai saber com quem
                C                     B7
Aprenda como eu aprendi a dividir alguém 

                 G
Tô pronta pra trair
Joguei fora a vergonha
Que eu tinha na cara
              Em
Vou sair por aí
E na primeira boca vou fazer parada
     Em/F#  Em/G        Am7
Não vai    ser na sua frente
Cê não vai saber com quem
                C                     B7
Aprenda como eu aprendi a dividir alguém 

E me divide também

[Final] Em

#4t1#                        Em
#4t2#E|----------------------0--0----------------|
B|----------------------0--0----------------|
G|-4-5-4h5p4---4--------0--0----------------|
D|-----------7---5\2-2--2--2----------------|
A|----------------------2--2----------------|
E|----------------------0--0----------------|
                        ↓  ↑#/4t2##/4t1#
Composição: Lauana Prado / Luiz Henrique / Matheus MarcolinoColaboração e revisão: Thiago Almeida