busca

I Can't Say

Armandinho

Tom: D
   A                          Bm
Desde o dia que eu olhei pra tu
  D                      A
Logo vi que era I love you
 A                            Bm
Mas como eu nao sei falar inglês
  D                      A                 
É assim que eu canto pra vocês

             F#m     C#m7
Give it on I can't say
       D
I watch gone do
       Dm
I watch gone way
  F#m     C#m7
I can't say
       D
I watch gone do
       Dm
I watch gone way

   A                        Bm
Lembro o dia em que você falou
  D                                  A
I don't, I don't, I don't, I don't  know
  A                          Bm
Quem diria que hoje a gente sai
  D             Dm         A
E você não quer dizer good-bye 

             F#m     C#m7
Give it on I can't say
       D
I watch gone do
       Dm
I watch gone way
  F#m     C#m7
I can't say
       D
I watch gone do
       Dm
I watch gone way
 F#m     C#m7
I can't say
       D
I watch gone do
       Dm
I watch gone way
 F#m     C#m7
I can't say
       D
I watch gone do
       Dm
I watch gone way

(A Bm D A)2x (F#m C#m7 D Dm)4x
e|---------------------------------------------|----------------------------------------------------|
B|---------------------------------------------|----------------------------------------------------|
G|---------------------------------------------|----------------------------------------------------|
D|--------------11-11-11-9--7-4-7-4-7-4-7-7-4--|--------------4-7/11-11-9-9-7-7-7-7-11-9-7-7/9-7-7-7|
A|--7-4-7-4-7-7-------------------------------7|--7-4-7-4-7-7---------------------------------------|
E|---------------------------------------------|----------------------------------------------------|

                                                           (2x)
e|-----------------------------------------|----------------------------------------|
B|-----------------------------------------|----------------------------------------|
G|--------------6-6-7-9-7-6-7-6-6----------|-----------6-6-7-9-7-6-7-6-6------------|
D|-11-9-7---7-9-------------------9-9-7-9-7|-------7-9-------------------9-9-7-9-7--|
A|--------9--------------------------------|-9-7-9----------------------------------|
E|-----------------------------------------|----------------------------------------|


e|-----------------------------------------|
B|-----------------------------------------|
G|-----------6-6-7-9-7-6-7-6/--------------|
D|-------7-9-------------------------------|
A|-9-7-9-----------------------------------|
E|-----------------------------------------|

   A                        Bm
Lembro o dia em que você falou
  D                                  A
I don't, I don't, I don't, I don't  know
  A                          Bm
Quem diria que hoje a gente sai
  D                        A
E você não quer dizer good-bye 

             F#m     C#m7
Give it on I can't say
       D
I watch gone do
       Dm
I watch gone way
  F#m     C#m7
I can't say
       D
I watch gone do
       Dm
I watch gone way
 F#m     C#m7
I can't say
       D
I watch gone do
       Dm
I watch gone way
 F#m     C#m7
I can't say
       D
I watch gone do
       
I watch gone way!!

Clipes

Cifra Club Pro

Aproveite o Cifra Club com benefícios exclusivos e sem anúncios
7 dias grátis
Cifra Club Pro
Aproveite o Cifra Club com benefícios exclusivos e sem anúncios
7 dias grátis