busca

Im Not A Punk

Descendents

this is one of my favorites of their songs off of their 1982 album milo goes to college.


Intro/verse:


---------------------------------------|
---------------------------------------|   x8
---------66--------55------------------|
----33--------88--------6--------------|


Chorus:


---------------------------------------|
---------------------------------------|   x2
----22222---666666---888888---10101010-|
---------------------------------------|


------------------|
------------------|   x1
----666--3--5-----|
---------------6--|


(then play everything over again)

Clipes