busca

Eu Te Devoro

Djavan

Tom: D
[Intro] D7M(9)  Bm7(9/11)  G7M  G7M/B  A7(4/9)
        D7M(9)  Bm7(9/11)  G7M  G7M/B  A7(4/9)

[Primeira Parte]

D7M(9)                               Bm7(9/11)
      Teus  sinais me confundem da cabeça     aos pés
                       G7M   G7M/B  A7(4/9)
Mas por dentro eu te devoro
D7M(9)                           Bm7(9/11)
      Teu olhar não me diz exato quem      tu és
                    G7M   G7M/B       A7(4/9)
Mesmo assim eu te devoro, te    devoraria
  D7M(9)                             Bm7(9/11)
A qualquer preço porque te ignoro ou te       conheço
                       G7M      G7M/B  A7(4/9)
Quando chove ou quando faz frio
D7M(9)                          Bm7(9/11)
      Noutro plano te devoraria tal       Caetano
              G7M
A Leonardo di Caprio
C7(9)     A7(4/9)
É    um milagre

[Refrão]

Bm7           A6                G7M
Tudo que Deus criou pensando em     você
      Bm7         A6          A/G
Fez a Via-Láctea, fez os dinossauros
       Bm7         A6          G7M
Sem pensar em nada fez a minha vida
F#m7        G7M
E    te deu
       Bm7         A6         G7M
Sem contar os dias que me faz morrer
      Bm7         A6         A/G
Sem saber de ti jogado à solidão
       Bm7              A6          G7M
Mas se quer saber se eu quero outra vida
      F#m7    G7M
Não, não

D7M(9)                         Bm7(9/11)
       Eu quero mesmo é viver, pra       esperar, esperar
    G7M       G7M/B  A7(4/9)
Devorar você
D7M(9)                         Bm7(9/11)
       Eu quero mesmo é viver, pra       esperar, esperar
    G7M       G7M/B  A7(4/9)
Devorar você
D7M(9)       Bm7(9/11)       G7M      G7M/B  A7(4/9)
       Meu viver       é esperar você
 D7M(9)                         Bm7(9/11)
       Eu quero mesmo é viver, pra       esperar, esperar
    G7M       G7M/B  A7(4/9)
Devorar você

D7M(9)                         Bm7(9/11)
       Eu quero mesmo é viver, pra       esperar, esperar
    G7M       G7M/B  A7(4/9)
Devorar você
D7M(9)       Bm7(9/11)       G7M      G7M/B  A7(4/9)
       Meu viver       é esperar você
D7M(9)       Bm7(9/11)       G7M      A4(b9)
       Meu viver       é esperar você

[Solo]

E|-----------2---5-5/7-7-7-7----5---5-5-7---------------------------------|
B|-3-2-2-2-3------------------7---7-------7-7-8-7-7-7-8-5--3-5-3-2-3-5-3--|
G|------------------------------------------------------------------------|
D|------------------------------------------------------------------------|
A|------------------------------------------------------------------------|
E|------------------------------------------------------------------------|

E|-2-5-2---5-7-9-10-12---/10-12-10-9-7-5-7-9/10-9-7-5---------------------|
B|-------3----------------------------------------------------------------|
G|------------------------------------------------------------------------|
D|------------------------------------------------------------------------|
A|------------------------------------------------------------------------|
E|------------------------------------------------------------------------|

Clipes