Samurai

Djavan

A#m7(5-)
1234
X1212X
A7M
123
X02120
B7(13)
1234
X2X244
B7(9)
1234
X2122X
C#7(13)
1234
X4X466
C#7(9)
1234
X4344X
D#7(9-)
1234
X6565X
E7M
1234
XX2444
F#m7
1234
2X222X
G#m7
1234
4X444X
G7M
1234
3X443X
1234
3X232X
1234
3X232X
Tom: G
[Intro] E7M    G#m7  C#7(9)
        E7M    G#m7  B7(13)  B5(7/9)
        E7M    G#m7  C#7(9) 
        E7M    G#m7  B7(9)
        E7M    G#m7  C#7(9)
        E7M    G#m7  B7(13)  B5(7/9)
        E7M    G#m7  C#7(9) 
        E7M    G#m7  B7(9)

[Introdução e Primeira Parte]

Parte 1

#1t1#   E7M                 G#m7      C#7(9)
#1t2#E|-4-----x-4--------------------------------|
B|-4-----x-4-2-----2-x-2-4-----x-4-4--------|
G|-4-----x-4-3-----3-x-3-4-----x-4-4--------|
D|---2-2-----2-----2-x-2-4-----x-4-3--------|
A|------------------------------------4-4---|
E|-------------3-3---------4-4--------------|#/1t2##/1t1#

#2t1##2t2#E|------------------------------------------|
B|-4-x-2------------------------------------|
G|-4-x-4------------------------------------|
D|-3-x-4------------------------------------|
A|------------------------------------------|
E|------------------------------------------|#/2t2##/2t1#

Parte 2 

#3t1#   E7M                 G#m7      B7(9)
#3t2#E|-4-----x-4--------------------------------|
B|-4-----x-4-2-----2-x-2-4-----x-4-2--------|
G|-4-----x-4-3-----3-x-3-4-----x-4-2--------|
D|---2-2-----2-----2-x-2-4-----x-4-1--------|
A|------------------------------------2-2---|
E|-------------3-3---------4-4--------------|#/3t2##/3t1#

#4t1##4t2#E|------------------------------------------|
B|-2-x-2------------------------------------|
G|-2-x-2------------------------------------|
D|-1-x-1------------------------------------|
A|------------------------------------------|
E|------------------------------------------|#/4t2##/4t1#

Variação 1

#5t1#   E7M                 G#m7      B7(13) B5(7/9)
#5t2#E|-4-----x-4-----------------------4------2-|
B|-4-----x-4-2-----2-x-2-4-----x-4-4------2-|
G|-4-----x-4-3-----3-x-3-4-----x-4-2------2-|
D|---2-2-----2-----2-x-2-4-----x-4----------|
A|---------------------------------2------2-|
E|-------------3-3---------4-4--------------|#/5t2##/5t1#

Variação 2

#6t1#   E7M                 G#m7    C#7(13) B7(13) 
#6t2#E|-4-----x-4---------------------6-------4--|
B|-4-----x-4-2-----2-x-2-4-----x-6-------4--|
G|-4-----x-4-3-----3-x-3-4-----x-4-------2--|
D|---2-2-----2-----2-x-2-4-----x------------|
A|-------------------------------4-------2--|
E|-------------3-3---------4-4--------------|#/6t2##/6t1#

[Primeira Parte]

E7M      G#m7            C#7(9)
    Ai...       quanto querer
E7M                G#m7  B7(9)
    Cabe em meu coração
E7M      G#m7            C#7(9)
    Ai...       me faz sofrer
E7M                          G#m7  B7(13)  B5(7/9)
    Faz que me mata e se não mata   fere

( E7M    G#m7  C#7(9) )
( E7M    G#m7  C#7(13)  B7(13) )

E7M        G#m7           C#7(9)
    Vai...        sem me dizer
E7M              G#m7  B7(9)
    Na casa da paixão
E7M      G#m7               C#7(9)
    Sai...       quando bem quer
E7M                     G#m7     B7(13) B5(7/9)
    Traz uma praga e me afaga a pele

( E7M    G#m7  C#7(9) )
( E7M    G#m7  C#7(13)  B7(13) )

[Segunda Parte]

Parte 1 de 6

#7t1#   E7M                 G#m7      C#7(9)
#7t2#E|-4-----x-4--------------------------------|
B|-4-----x-4-2-----2-x-2-4-----x-4-4--------|
G|-4-----x-4-3-----3-x-3-4-----x-4-4--------|
D|---2-2-----2-----2-x-2-4-----x-4-3--------|
A|------------------------------------4-4---|
E|-------------3-3---------4-4--------------|#/7t2##/7t1#

#8t1##8t2#E|------------------------------------------|
B|-4-x-2------------------------------------|
G|-4-x-4------------------------------------|
D|-x-x-x------------------------------------|
A|------------------------------------------|
E|------------------------------------------|#/8t2##/8t1#

Parte 2 de 6

#9t1#   A7M     G7M     F#m7
#9t2#E|-------------------------4h7---4----------|
B|-2--x-2--3--x-3--2---x-2-----7---5h7---4--|
G|-1--x-1--4--x-4--2---x-2-------------6----|
D|-2--x-2--4--x-4--2---x-2------------------|
A|-0--x-0--x--x-x------x--------------------|
E|---------3----3--2-----2------------------|#/9t2##/9t1#

Parte 2 de 6 (variação)

#10t1#   A7M     G7M     F#m7     B7(9)
#10t2#E|------------------------------------------|
B|-2--x-2--3--x-3--2---x-2--2--x-2----------|
G|-1--x-1--4--x-4--2---x-2--2--x-2----------|
D|-2--x-2--4--x-4--2---x-2--1--x-1----------|
A|-0--x-0--x--x-x------x----2--x-2----------|
E|---------3----3--2-----2------------------|#/10t2##/10t1#

Parte 3 de 6

#11t1#   E7M                 G#m7      C#7(9)
#11t2#E|-4-----x-4--------------------------------|
B|-4-----x-4-2-----2-x-2-4-----x-4-4--------|
G|-4-----x-4-3-----3-x-3-4-----x-4-4--------|
D|---2-2-----2-----2-x-2-4-----x-4-3--------|
A|------------------------------------4-4---|
E|-------------3-3---------4-4--------------|#/11t2##/11t1#

#12t1##12t2#E|------------------------------------------|
B|-4-x-2------------------------------------|
G|-4-x-4------------------------------------|
D|-3-x-4------------------------------------|
A|------------------------------------------|
E|------------------------------------------|#/12t2##/12t1#

Parte 4 de 6

#13t1#   A7M            A#m7(5-)   D#7(9-)
#13t2#E|---------2--2-x-0-------------------------|
B|-2--x-2--2--2-x-2-2--x-2---5-x-5----------|
G|-1--x-1--1--1-x-1-1--x-1---6-x-6----------|
D|-2--x-2-------x---2--x-2---5-x-5----------|
A|-0--x-0--0----x---1--x-1---6-x-6----------|
E|--------------x---------------------------|#/13t2##/13t1#

Parte 5 de 6

#14t1#   E7M                 G#m7      C#7(9)
#14t2#E|-4-----x-4--------------------------------|
B|-4-----x-4-2-----2-x-2-4-----x-4-4--------|
G|-4-----x-4-3-----3-x-3-4-----x-4-4--------|
D|---2-2-----2-----2-x-2-4-----x-4-3--------|
A|------------------------------------4-4---|
E|-------------3-3---------4-4--------------|#/14t2##/14t1#

#15t1##15t2#E|------------------------------------------|
B|-4-x-2------------------------------------|
G|-4-x-4------------------------------------|
D|-x-x-x------------------------------------|
A|------------------------------------------|
E|------------------------------------------|#/15t2##/15t1#

Parte 6 de 6

#16t1#   E7M                 G#m7    C#7(13) B7(13) 
#16t2#E|-4-----x-4---------------------6-------4--|
B|-4-----x-4-2-----2-x-2-4-----x-6-------4--|
G|-4-----x-4-3-----3-x-3-4-----x-4-------2--|
D|---2-2-----2-----2-x-2-4-----x------------|
A|-------------------------------4-------2--|
E|-------------3-3---------4-4--------------|#/16t2##/16t1#

E7M                G#m7           C#7(9)
    Crescei     luar      pra iluminar
     A7M   G7M     F#m7     B7(9) 
As trevas fundas  da    paixão
E7M             G#m7             C#7(9)
    Eu quis lutar      contra o poder    do amor
A7M                      A#m7(5-)
    Caí nos pés do vencedor
                  D#7(9-)       E7M  
Para ser um serviçal de um samurai
G#m7            C#7(9)
     Mas eu tô tão feliz
E7M                   G#m7  C#7(13)  B7(13)
    Dizem que o amor atrai
 
( E7M    G#m7  C#7(9) ) 
( E7M    G#m7  B7(13)  B5(7/9) )
( E7M    G#m7  C#7(9) )
( E7M    G#5(7/9/11) )
Composição: DjavanColaboração e revisão: Thiago AlmeidaGilson Feitosaevanderson araujoHugo Moreirae mais 3
Videoaula Samurai (aula de violão completa)