Sina

Djavan

A
X0P222X
C#7(9+)
1234
X4345X
C#7(9-)
34
X4P34P3X
C#7(9-/13-)
234
X43435
C#m7
1234
X4245X
D#°
1234
XX1212
D#º
1234
XX1212
D/A
123
X0423X
D4(7/9)
1
XX0010
D7(9)
1234
X5455X
D7M
XX0P222
E4(7/9)
3
XXP2P23P2
F#m7
P2XP2222
G#m7(11)
1234
4X442X
Tom: G
[Intro] 

#1t1#         A                       D/A
#1t2#E|---------------------------------------------------|
B|-------2-----------------------3-------------------|
G|-------2-----------------------2-------------------|
D|---4---2-------2-----------2---4-------4-----------|
A|-0---0-0-----0---0-0-----0---0-0-----0---0-0-------|
E|---------------------------------------------------|#/1t2##/1t1#

#2t1#         A                       D/A
#2t2#E|---------------------------------------------------|
B|-------2-----------------------3-------------------|
G|-------2-----------------------2-------------------|
D|---4---2-------2-----------2---4-------4-----------|
A|-0---0-0-----0---0-0-----0---0-0-----0---0-0-------|
E|---------------------------------------------------|#/2t2##/2t1#

(Dicas)

#3t1##3t2#E|---------------------------------------------------|
B|---------------------------------------------------|
G|---------------------------------------------------|
D|---------------------------------------------------|
A|-----0-0---------0-0---------0-0---------0-0-------|
E|---------------------------------------------------|#/3t2##/3t1#

#4t1##4t2#E|---------------------------------------------------|
B|---------------------------------------------------|
G|---------------------------------------------------|
D|---4-----------2-----------2-----------4-----------|
A|-0---0-0-----0---0-0-----0---0-0-----0---0-0-------|
E|---------------------------------------------------|#/4t2##/4t1#

[Primeira Parte]

#5t1#         A                       D/A
#5t2#E|---------------------------------------------------|
B|-------2-----------------------3-------------------|
G|-------2-----------------------2-------------------|
D|---4---2-------2-----------2---4-------4-----------|
A|-0---0-0-----0---0-0-----0---0-0-----0---0-0-------|
E|---------------------------------------------------|#/5t2##/5t1#

#6t1#         A                       G#m7(11)    C#7(9-)
#6t2#E|---------------------------------------------------|
B|-------2-----------------------2-----------3-------|
G|-------2-----------------------4-----------4-------|
D|---4---2-------2-----------2---4-------4---3-------|
A|-0---0-0-----0---0-0-----0---0-------------4-------|
E|-------------------------------4-----4---4---------|#/6t2##/6t1#

#7t1#         F#m7                    C#m7
#7t2#E|---------------------------------------------------|
B|-------2-----------------------5-------------------|
G|-------2-----------------------4-------------------|
D|---3---2-------2-----------2---2-------2-----------|
A|-4---4-------------------------4-----4---4-4-------|
E|-------2-----2---2-2-----2---2---------------------|#/7t2##/7t1#

#8t1#         D7M                     D#º
#8t2#E|-------2-----------------------2-------------------|
B|-------2-----------------------1-------------------|
G|-------2-------2-----------2---2-------2-----------|
D|---2---0-----0---0-0-----0---0-1-----1---1-1-------|
A|-4---4---------------------------------------------|
E|---------------------------------------------------|#/8t2##/8t1#

A            D/A
   Pai e mãe, ouro de mina
A          G#m7(11)    C#7(9-)
   Coração,   desejo  e  sina
F#m7        C#m7           D7M
  Tudo mais, pura rotina, jazz
     D#°                      A
Tocarei seu nome prá poder falar de amor
D/A               A
   Minha princesa, art-nouveau
G#m7(11)      C#7(9-)  F#m7
        Da natureza,    tudo o mais
C#m7           D7M   D#°
    Pura beleza, jazz

[Segunda Parte]

#9t1#    F#m7
#9t2#E|---------------------------------------------------|
B|--2------------------------------------------------|
G|--2------------------------------------------------|
D|--2---------2-----------2-----------2--------------|
A|---------------------------------------------------|
E|--2-2-----2---2-2-----2---2-2-----2---2------------|#/9t2##/9t1#

         E4(7/9)            
A luz de um grande prazer 
  D4(7/9) D7(9) C#7(9+) C#7(9-/13-) F#m7
É irre___medi___ável   neon
           E4(7/9)            D4(7/9)     E4(7/9)
Quando o grito do prazer açoitar   o ar, reveillon

[Refrão]

#10t1#                   A             D/A
#10t2#E|---------------------------------------------------|
B|-----------------2-------------3-------------------|
G|-----------------2-------------2-------------------|
D|-----------------2---------2---4-------4-----------|
A|-----------------0-0-----0---0-0--x--0---0-0-------|
E|----------------------------------x----------------|#/10t2##/10t1#

#11t1#         A                       G#m7(11)    C#7(9-)
#11t2#E|---------------------------------------------------|
B|-------2-----------------------2-----------3-------|
G|-------2-----------------------4-----------4-------|
D|---4---2-------2-----------2---4-------4---3-------|
A|-0---0-0--x--0---0-0-----0---0----x--------4-------|
E|----------x--------------------4--x--4---4---------|#/11t2##/11t1#

#12t1#         F#m7                    C#m7
#12t2#E|---------------------------------------------------|
B|-------2-----------------------5-------------------|
G|-------2-----------------------4-------------------|
D|---3---2-------2-----------2---2-------2-----------|
A|-4---4----x--------------------4--x--4---4-4-------|
E|-------2--x--2---2-2-----2---2----x----------------|#/12t2##/12t1#

#13t1#         D7M                     E4(7/9)
#13t2#E|-------2-----------------------2-------------------|
B|-------2-----------------------3-------------------|
G|-------2-------2-----------2---2-------2-----------|
D|---2---0--x--0---0-0-----0---0-2--x--2---2-2-------|
A|-4---4----x-----------------------x----------------|
E|---------------------------------------------------|#/13t2##/13t1#

A               D/A
  O luar, estrela do mar
           A                G#m7(11)     C#7(9-)
O sol e o dom, quiçá, um dia    a fúria
        F#m7
Desse front virá lapidar
C#m7                     D7M
    O sonho até gerar o som
           E4(7/9)                  A
Como querer  Caetanear o que há de bom

              D/A
O luar, estrela do mar
           A                G#m7(11)     C#7(9-)
O sol e o dom, quiçá, um dia    a fúria
        F#m7
Desse front virá lapidar
C#m7                     D7M
    O sonho até gerar o som
           E4(7/9)                  
Como querer  Caetanear o que há de bom

( A  D/A  A  D/A )
Composição: DjavanColaboração e revisão: Thiago Almeidalucas paulinojosé peixoto
Videoaula Sina (aula de violão completa)