Na Corte do Egito

Fernanda Brum

A
123
X02220
Bm
234
X24432
Bm7
34
X24232
D
123
XX0232
D/F#
1234
2X0232
E
123
022100
Em
12
022000
Em7
123
022030
G
123
320003
Tom: G
[Intro] D   A   Bm  G

Bm                    G
   Na corte do Egito,   ou na casa de César
Em7                         G     A   Bm
   Na Babilônia eu sei que não é meu lugar
Bm                       G
   Rejeito seus manjares,  reprovo seus altares
Em7         D/F#          G       A     Bm
   E não me iludo com a festa de Belsazar
Em                   D/F#
   Porque eu não cedo,  nem retrocedo
G                      D/F#
   Estou decidido e não volto a traz
Em              D/F#
   Estou firmado,  estou seguro
G                    A
   Eu sou um Santo lutando contra o pecado

[Refrão]

             D      A                Bm7       G
Eu quero ser saaaaanto, eu quero ser saaaaaaanto
             Bm7           A              E
Eu quero ser santo, porque Santo é meu Senhor
             D       A               Bm7      A
Eu quero ser saaaaanto, eu quero ser Saaaaaanto
             Bm7
Eu quero ser santo
       A              E
Porque Santo é meu Senhor

( Bm7  G  Bm7  E  Bm7  G  Bm7  Em7  D/F#  G )

#1t1##1t2#E|----------7--7--7--7--7--7-------------------------------------------------------------------------|
B|----------7--7--7--7--7--7--------------------------------------------------------------------------|
G|--9b11----------------------9b11--7--7------------------------7--7---------7b9(ha)----------|
D|------------------------------------------9---9--9(ha)-------7----------9-7------------------------|
A|-----------------------------------------------------------7--9--9-------------------------------------|
E|-------------------------------------------------------------------------------------------------------|#/1t2##/1t1#

#2t1##2t2#E|---------------------------------------------------------------------------------------------------------17----------|
B|--------------------------------------------------------------------------12--14--15--17--17b19---17b19--|
G|--------------------------------------7/9--11t14--11t16--11/16----------------------------------------------|
D|--9--7---------------------------------------------------------------------------------------------------------------|
A|--------9--8--7----------7------------------------------------------------------------------------------------------|
E|-----------------10--10---10---------------------------------------------------------------------------------------|#/2t2##/2t1#

#3t1##3t2#E|-------------------------------------------------------------|
B|-19b20r19-15----------------------------19-20-22--|
G|---------------------------------17-19-21----------------|
D|-------------------17-19-21------------------------------|
A|--------------------------------------------------------------|
E|--------------------------------------------------------------|#/3t2##/3t1#
Composição: Colaboração e revisão: Gleydson SilvaStephany SoaresSandro Silvakeila ferreirae mais 1