busca

Suas Digitais

Fernanda Brum

Tom: Bb (forma dos acordes no tom de A) Capotraste na 1ª casa
[Intro]

         G9          Bm7         A4
E|--------------------------------------|
B|-------0------------------------------|
G|-----2-----2-0--------0---------------|
D|---0--------------4-----4---2---0-----|
A|--------------------2---------0---4-2-|
E|-3-------3----------------------------|

        G9           Bm7      A4
E|--------------------------------------|
B|-------0------------------------------|
G|-----2-----2-0--------0---------------|
D|---0--------------4-----4---2---------|
A|--------------------2---------0-------|
E|-3-------3----------------------------|

D                A/C#              D/F#
 Sem ter condição    de Te escolher    cego
             G9   D          A/C# Bm7 
Pelos meus pecados  ouvi Tua voz     dizendo
A6           G9    A4    D
Eu vim te buscar e te salvar

D             A/C#                 D/F#
 Então percebi    que eu já era Seu    bem antes
               G9              D        A/C# C
De existir o Senhor me escolheu valeu a pena
         G/B        Em7       A4          D4  D
Perder a minha vida pelo Teu amor Te encontrei

   D                   A4
Em minha alma estão as Tuas digitais
     Bm7                    G9        A4
Cada dia que se passa eu Te amo muito mais
    D                  A4
Tua graça perfumou meu coração, Senhor onde
Em7        D/F#         G9      A4   G9
O  pecado abundou hoje ela superabundou

Bm7 A4 G9 Bm7 A4 D                A/C#
                  Sem ter condição

Bm7           A/C#       D/F#
   Porque dEle    por Ele
             G9               
Para Ele são todas as coisas

Em7            D/F#       ( G9  Bm7  A4 )
   Porque Dele,    por Ele

Clipes

Cifra Club Pro

Aproveite o Cifra Club com benefícios exclusivos e sem anúncios
Cifra Club Pro
Aproveite o Cifra Club com benefícios exclusivos e sem anúncios