Suas Digitais

Fernanda Brum

A/C#
1234
X4X255
A4
123
X02230
A6
1234
5X465X
Bm7
34
X24232
C
123
X32010
D
123
XX0232
D/F#
1234
2X0232
D4
123
XX0233
Em7
123
022030
G/B
123
X20033
G9
12
3X020X
Tom: G
[Intro]

#1t1#         G9          Bm7         A4
#1t2#E|--------------------------------------|
B|-------0------------------------------|
G|-----2-----2-0--------0---------------|
D|---0--------------4-----4---2---0-----|
A|--------------------2---------0---4-2-|
E|-3-------3----------------------------|#/1t2##/1t1#

#2t1#        G9           Bm7      A4
#2t2#E|--------------------------------------|
B|-------0------------------------------|
G|-----2-----2-0--------0---------------|
D|---0--------------4-----4---2---------|
A|--------------------2---------0-------|
E|-3-------3----------------------------|#/2t2##/2t1#

D                A/C#              D/F#
 Sem ter condição    de Te escolher    cego
             G9   D          A/C# Bm7 
Pelos meus pecados  ouvi Tua voz     dizendo
A6           G9    A4    D
Eu vim te buscar e te salvar

D             A/C#                 D/F#
 Então percebi    que eu já era Seu    bem antes
               G9              D        A/C# C
De existir o Senhor me escolheu valeu a pena
         G/B        Em7       A4          D4  D
Perder a minha vida pelo Teu amor Te encontrei

   D                   A4
Em minha alma estão as Tuas digitais
     Bm7                    G9        A4
Cada dia que se passa eu Te amo muito mais
    D                  A4
Tua graça perfumou meu coração, Senhor onde
Em7        D/F#         G9      A4   G9
O  pecado abundou hoje ela superabundou

Bm7 A4 G9 Bm7 A4 D                A/C#
                  Sem ter condição

Bm7           A/C#       D/F#
   Porque dEle    por Ele
             G9               
Para Ele são todas as coisas

Em7            D/F#       ( G9  Bm7  A4 )
   Porque Dele,    por Ele
Composição: Anderson FreireColaboração e revisão: carlexson senaJason FelipeRamon ChrystianVictor Martinse mais 5