Número Privado

Gabriel Gava

A
123
X02220
A5
12
X022XX
B4
234
X24452
D
123
XX0232
D5(9)
134
X579XX
Em
12
022000
Em7
123
022030
F#m7/E
1234
XX2252
G
123
320003
Tom: G
Intro: D  F#m7/E  B4  Em  B4  Em  Em7  G

#1t1##1t2#E|-----------------------------------------|
B|---3----3--------------------------------|
G|-2----2----------------------------------|
D|---0----0--------------------------------|
A|-----------------------------------------|
E|-----------------------------------------|#/1t2##/1t1#

Transição intro (B4 - Em - Em7 - G)

#2t1#   ↑ ↓ ↑ ↓ ↑ ↓ ↑   ↓
#2t2#E|-2-2-2-2-0-0-0---3------------------------|
B|-0-0-0-0-0-0-3---3------------------------|
G|-0-0-0-0-0-0-0---0------------------------|
D|-2-2-2-2-2-2-2---0------------------------|
A|-2-2-2-2-2-2-2---2------------------------|
E|-----------------3------------------------|#/2t2##/2t1#

D5(9)              A5
 Alguém ligou desesperado
              Em
 De um número privado
               G
 Avisando: Sua casa tá pegando fogo
D5(9)            A5                  Em
  Eu voltei alucinado, com ela preocupado
                G
Coitadinha, meu amor, tá passando sufoco
 
            D5(9)             A
E quando eu cheguei, sutiã na sala
              Em                     G
Churrasqueira quente e no quarto ela gritava:
            D                     A
Amor, amor, amor, o amor dela sou eu
                               Em
Quem é que tava ali se não era eu?
G
Na minha cama usando o que é meu
D                                 A
Amor, amor, amor, o amor dela sou eu
                               Em7
Quem é que tava ali se não era eu?
G
Na minha cama usando o que é meu

Intro: D  F#m7/E  B4  Em  B4  Em  Em7  G

D5(9)              A5
 Alguém ligou desesperado
              Em
 De um número privado
               G
 Avisando: Sua casa tá pegando fogo
  D5(9)          A5                  Em
  Eu voltei alucinado, com ela preocupado
                G
Coitadinha, meu amor, tá passando sufoco
 
            D5(9)             A
E quando eu cheguei, sutiã na sala
              Em                     G
Churrasqueira quente e no quarto ela gritava:
            D                     A
Amor, amor, amor, o amor dela sou eu
                               Em7
Quem é que tava ali se não era eu?
G
Na minha cama usando o que é meu
D                                 A
Amor, amor, amor, o amor dela sou eu
                               Em7
Quem é que tava ali se não era eu?
G
Na minha cama usando o que é meu

Intro: D  F#m7/E  B4  Em  B4  Em  Em7  G

D                                 A
Amor, amor, amor, o amor dela sou eu
                              Em7
Quem é que tava ali se não era eu?
G
Na minha cama usando o que é meu

D                                 A
Amor, amor, amor, o amor dela sou eu
                               Em7
Quem é que tava ali se não era eu?
G
Na minha cama usando o que é meu

#3t1##3t2#E|-------------2---------------------------|
B|---3----3----3---------------------------|
G|-2----2------2---------------------------|
D|---0----0--------------------------------|
A|-----------------------------------------|
E|-----------------------------------------|#/3t2##/3t1#
Composição: Colaboração e revisão: Everton Kleringshushus sao