busca

Número Privado

Gabriel Gava

Tom: D
Intro: D  F#m7/E  B4  Em  B4  Em  Em7  G

E|-----------------------------------------|
B|---3----3--------------------------------|
G|-2----2----------------------------------|
D|---0----0--------------------------------|
A|-----------------------------------------|
E|-----------------------------------------|

Transição intro (B4 - Em - Em7 - G)

   ↑ ↓ ↑ ↓ ↑ ↓ ↑   ↓
E|-2-2-2-2-0-0-0---3------------------------|
B|-0-0-0-0-0-0-3---3------------------------|
G|-0-0-0-0-0-0-0---0------------------------|
D|-2-2-2-2-2-2-2---0------------------------|
A|-2-2-2-2-2-2-2---2------------------------|
E|-----------------3------------------------|

D5(9)              A5
 Alguém ligou desesperado
              Em
 De um número privado
               G
 Avisando: Sua casa tá pegando fogo
D5(9)            A5                  Em
  Eu voltei alucinado, com ela preocupado
                G
Coitadinha, meu amor, tá passando sufoco
 
            D5(9)             A
E quando eu cheguei, sutiã na sala
              Em                     G
Churrasqueira quente e no quarto ela gritava:
            D                     A
Amor, amor, amor, o amor dela sou eu
                               Em
Quem é que tava ali se não era eu?
G
Na minha cama usando o que é meu
D                                 A
Amor, amor, amor, o amor dela sou eu
                               Em7
Quem é que tava ali se não era eu?
G
Na minha cama usando o que é meu

Intro: D  F#m7/E  B4  Em  B4  Em  Em7  G

D5(9)              A5
 Alguém ligou desesperado
              Em
 De um número privado
               G
 Avisando: Sua casa tá pegando fogo
  D5(9)          A5                  Em
  Eu voltei alucinado, com ela preocupado
                G
Coitadinha, meu amor, tá passando sufoco
 
            D5(9)             A
E quando eu cheguei, sutiã na sala
              Em                     G
Churrasqueira quente e no quarto ela gritava:
            D                     A
Amor, amor, amor, o amor dela sou eu
                               Em7
Quem é que tava ali se não era eu?
G
Na minha cama usando o que é meu
D                                 A
Amor, amor, amor, o amor dela sou eu
                               Em7
Quem é que tava ali se não era eu?
G
Na minha cama usando o que é meu

Intro: D  F#m7/E  B4  Em  B4  Em  Em7  G

D                                 A
Amor, amor, amor, o amor dela sou eu
                              Em7
Quem é que tava ali se não era eu?
G
Na minha cama usando o que é meu

D                                 A
Amor, amor, amor, o amor dela sou eu
                               Em7
Quem é que tava ali se não era eu?
G
Na minha cama usando o que é meu

E|-------------2---------------------------|
B|---3----3----3---------------------------|
G|-2----2------2---------------------------|
D|---0----0--------------------------------|
A|-----------------------------------------|
E|-----------------------------------------|

Clipes

Cifra Club Pro

Aproveite o Cifra Club com benefícios exclusivos e sem anúncios
Cifra Club Pro
Aproveite o Cifra Club com benefícios exclusivos e sem anúncios