Volta Pro Meu Coração

João Carreiro e Capataz

Am
123
X02210
C
123
X32010
F
234
133211
G
123
320003
G9
12
3X020X
Tom: G
#1t1#Intro:
   C       G    C            F      G       C        Am                         G
#1t2#E|-----------------------------------------------------------------------------3-------
B|-------------------------------------------------------------------------1/3---3-3/5-
G|-------0------------0-2-4-5-4h5p4-2-0--0h2-0-----------------------0-2-4-------------
D|-0h2-3---0-0h2--2h3---------------------------2-0h2p0------0-2-0h2-------------------
A|------------------------------------------------------3-3----------------------------
E|-------------------------------------------------------------------------------------#/1t2##/1t1#

#2t1#Dedilhado da primeira parte (violão 1):
          G                 C
#2t2#E|--------3-------|--------0-------|
B|----3-------3---|----1-------1---|
G|--0---0---0---0-|--0---0---0---0-|
D|----------------|----------------|
A|----------------|-3------3-------|
E|-3------3-------|----------------|#/2t2##/2t1#

#3t1#          G                 C
#3t2#E|--------3-------|--------0-------|
B|----3-------3---|----1-------1---|
G|--0---0---0---0-|--0---0---0---0-|
D|----------------|----------------|
A|----------------|-3------3-------|
E|-3------3-------|----------------|#/3t2##/3t1#

#4t1#       F        G        C        Am           G
#4t2#E|--------|--------|--------|--------|--------3-------|
B|----1---|----3---|----1---|----1---|----3-------3---|
G|--2---1-|--0---0-|--0---0-|--2---2-|--0---0---0---3-|
D|--------|--------|--------|--------|----------------|
A|--------|--------|-3------|-0------|----------------|
E|-1------|-3------|--------|--------|-3------3-------|#/4t2##/4t1#

#5t1#       F        G            C                 G                C
#5t2#E|--------|--------|---------0-------|--------3-------|--------0-------|
B|----1---|----3---|----1--------1---|----3-------3---|----1-------1---|
G|--2---1-|--0---0-|--0---0----0---0-|--0---0---0---0-|--0---0---0---1-|
D|--------|--------|-----------------|----------------|----------------|
A|--------|--------|-3-------3-------|----------------|-3------3-------|
E|-1------|-3------|-----------------|-3------3-------|----------------|#/5t2##/5t1#

#6t1#       F        G        C        Am           G
#6t2#E|--------|--------|--------|--------|--------3-------|
B|----1---|----3---|----1---|----1---|----3-------3---|
G|--2---1-|--0---0-|--0---0-|--2---2-|--0---0---0---3-|
D|--------|--------|--------|--------|----------------|
A|--------|--------|-3------|-0------|----------------|
E|-1------|-3------|--------|--------|-3------3-------|#/6t2##/6t1#

Riff 1 (violão 2)

#7t1##7t2#B|-5-3-1-----1/3-|#/7t2##/7t1#

Riff 2 (violão 2)

#8t1##8t2#E|-----0-1------------|
B|-1-3----------1-3-5-|#/8t2##/8t1#

Riff 3 (violão 2)

#9t1##9t2#B|-3/5-6-6/8-8~|#/9t2##/9t1#

Riff 4 (violão 2)

#10t1##10t2#B|--1-1-3-3/5~|#/10t2##/10t1#

Riff 5 (violão 2)

#11t1##11t2#B|-15-14h15p14-12|#/11t2##/11t1#

(1º parte)
       G        C
Tentei fugir de ti
           G9    C
Tentei te esquecer
        F        G      C
Tentei arrancar você de mim,
(Riff 1)
   Am       G
 mas enfim não deu
(Riff 2)
        F           G   C
Tentei trancar meu coração e ser
(Riff 3)
  G                 C
 contrário a essa paixão
(Riff 4)
       F        G     C
Tentei apenas sobreviver sem
(Riff 5)
  Am              G
você mas não deu, não deu, não deu
(Refrão)
Riff 6

#12t1##12t2#A|---0-2-3-|
E|-3-------|#/12t2##/12t1#

Riff 7

#13t1##13t2#D|---------------5/3-3-|
A|---0-2-3---5/7-------|
E|-3-------------------|#/13t2##/13t1#
Riff 8

#14t1##14t2#E|---0---0----0--0-|
B|-5---5----3----1-|#/14t2##/14t1#

(Riff 6)
  C                F
Doeu demais ver você partir
(Riff 6)
 C               G
Doeu de mais em mim
(Riff 7)
     C                 F
Tá doendo demais essa solidão
C              G    C
Volta pro meu coração
(Riff 6)
  C                F
Doeu demais ver você partir
(Riff 6)
 C               G
Doeu de mais em mim
(Riff 7)
     C                 F
Tá doendo demais essa solidão
(Riff 8)
C              G    C
Volta pro meu coração
Solo:

#15t1#    C         F      Am          G
#15t2#E|--------------------17-12/14-12-|
B|----------------/15-------------|
G|-3/5-0-----2--------------------|
D|-------2-3----------------------|
A|--------------------------------|
E|--------------------------------|#/15t2##/15t1#
#16t1#    Am                          F          C    G  C
#16t2#E|------------------------------------------------|
B|------------------------------------------------|
G|-------------------13h15-15-14-12------/11-/9-7~|
D|----------13h15-15------------------------------|
A|-13h15-15---------------------------------------|
E|------------------------------------------------|#/16t2##/16t1#

(Riff 2)
        F           G   C
Tentei trancar meu coração e ser
(Riff 3)
  G                 C
 contrário a essa paixão
(Riff 4)
       F        G     C
Tentei apenas sobreviver sem
(Riff 5)
  Am              G
você mas não deu, não deu, não deu

Refrão:
(Riff 6)
  C                F
Doeu demais ver você partir
(Riff 6)
 C               G
Doeu de mais em mim
#17t1##17t2#D|-------------3/5-3-2-0-2-0---|
A|---0-2-3-3/7---------------3-|
E|-3---------------------------|#/17t2##/17t1#

     C                 F
Tá doendo demais essa solidão
C              G    C
Volta pro meu coração
(Riff 6)
  C                F
Doeu demais ver você partir
(Riff 6)
 C               G
Doeu de mais em mim
     C                 F
Tá doendo demais essa solidão
C              G    C
Volta pro meu coração
C              F
Doeu de mais...
C                G
Doeu de mais em mim...

Tá doendo de mais essa solidão
C             G     C
Volta pro meu coração
                G       C
Volta pro meu coração
Composição: João CarreiroColaboração e revisão: Adilson SantosAllan caixetaEDIMAR DUVORAK