Aí Já Era

Jorge & Mateus

Am
123
X02210
Am7
12
X02010
B7
1234
X21202
Bm
234
X24432
C
123
X32010
C9
34
X35533
C9/E
123
032030
D
123
XX0232
Em
12
022000
Em7(9)
123
024030
Em7(9)/F#
123
204030
G
123
320003
G7M
123
3X0032
Tom: G
[Intro] C  D  Am7  
        C  D  Em7(9)  
        C  D  Am7  
        C  D  Em7(9)/F#  C9/E

#1t1#            C   D        Am7        C   D     Em7(9)
#1t2#E|----------7-----------------------7------10-7-------|
B|---7-8-10---10-8-7-7h8-----7-8-10---10--------7-----|
G|-9---------------------9-9-------------7--------7---|
D|--------------------------------------------------7-|
A|----------------------------------------------------|
E|----------------------------------------------------|#/1t2##/1t1#

#2t1#            C   D        Am7        C   D
#2t2#E|----------7-----------------------7-----------------|
B|---7-8-10---10-8-7-7h8-----7-8-10---10-8-7----------|
G|-9---------------------9-9--------------------------|
D|----------------------------------------------------|
A|----------------------------------------------------|
E|----------------------------------------------------|#/2t2##/2t1#

#3t1#   Em7(9)/F# C9/E
#3t2#E|----------------------------------------------------|
B|-7--------------------------------------------------|
G|---7------------------------------------------------|
D|-----7-5p4------------------------------------------|
A|-----------5/7--------------------------------------|
E|----------------------------------------------------|#/3t2##/3t1#

[Primeira Parte]

 G                      C9
Para pra pensar, porque eu já me toquei
G                       C9
Eu te escolhi e você me escolheu, eu sei
 G7M                   C9
Tá escancarado, vai negar pro coração?
          G         D           C9
Que você tá com sintomas de paixão!

            Em7(9)                 D
É quando os olhos se caçam em meio à multidão
          C9                           D
Quando a gente se esbarra andando em qualquer direção
       G                        D                  
Quando indiscretamente a gente vai perdendo o chão 
               C9
E vai ficando bobo
             
Vai ficando bobo

[Refrão]

   D    G           D          C9
E aí já era é hora de se entregar
    D         G                D        C9
O amor não espera, só deixa o tempo passar
         D      Bm       B7        Em
E fica pro coração a missão de avisar
            D       C9          D
E o meu tá dando sinal e tá querendo te amar!

[Solo] C  D  Am7 
       C  D  Em7(9)
       C  D  Am7
       C  D  Em7(9)/F#  C9/E

#4t1#            C   D        Am7
#4t2#E|----------7-----------------------------------------|
B|---7-8-10---10-8-7-7h8---10b12-10-8-----------------|
G|-9---------------------9----------------------------|
D|----------------------------------------------------|
A|----------------------------------------------------|
E|----------------------------------------------------|#/4t2##/4t1#

#5t1#            C   D     Em7(9)
#5t2#E|----------7------10-7-------------------------------|
B|---7-8-10---10--------------------------------------|
G|-9-------------7----------7-7-----------------------|
D|----------------------7h9-----9---------------------|
A|----------------------------------------------------|
E|----------------------------------------------------|#/5t2##/5t1#

#6t1#            C   D        Am7
#6t2#E|----------7-----------------------------------------|
B|---7-8-10---10-8-7-7h8---10b12-10-8-----------------|
G|-9---------------------9----------------------------|
D|----------------------------------------------------|
A|----------------------------------------------------|
E|----------------------------------------------------|#/6t2##/6t1#

#7t1#             C   D    Em7(9)/F# C9/E 
#7t2#E|-----------7--------------------h.n-12--------------|
B|----7-8-10---10-8-7-7-----------h.n-12--------------|
G|--9-------------------7-----------------------------|
D|------------------------5p4-------------------------|
A|----------------------------5/7---------------------|
E|----------------------------------------------------|#/7t2##/7t1#

[Primeira Parte]

 G                      C9
Para pra pensar, porque eu já me toquei
G                       C9
Eu te escolhi e você me escolheu, eu sei
 G7M                   C9
Tá escancarado, vai negar pro coração?
          G         D           C9
Que você tá com sintomas de paixão!

            Em7(9)                 D
É quando os olhos se caçam em meio à multidão
          C9                           D
Quando a gente se esbarra andando em qualquer direção
       G                        D                  
Quando indiscretamente a gente vai perdendo o chão 
               C9
E vai ficando bobo
             
Vai ficando bobo

[Refrão] (2x)

   D    G           D          C9
E aí já era é hora de se entregar
    D         G                D        C9
O amor não espera, só deixa o tempo passar
         D      Bm       B7        Em
E fica pro coração a missão de avisar
            D       C9          D         G
E o meu tá dando sinal e tá querendo te amar!

   D    G           D          C9
E aí já era é hora de se entregar
    D         G                D        C9
O amor não espera, só deixa o tempo passar
         D      Bm       B7        Em
E fica pro coração a missão de avisar
            D       C9          D         Am  Em
E o meu tá dando sinal e tá querendo te amar!
            D       C9          D
E o meu tá dando sinal e tá querendo te amar!

[Final] C  D  Am7
        C  D  Em7(9)
        C  D  Am7
        C  D  Em7(9)  C9/E
        G

#8t1#            C   D        Am7
#8t2#E|----------7-----------------------------------------|
B|---7-8-10---10-8-7-7h8---10b12-10-8-----------------|
G|-9---------------------9----------------------------|
D|----------------------------------------------------|
A|----------------------------------------------------|
E|----------------------------------------------------|#/8t2##/8t1#

#9t1#            C   D     Em7(9)
#9t2#E|----------7------10-7-------------------------------|
B|---7-8-10---10--------------------------------------|
G|-9-------------7----------7-7-----------------------|
D|----------------------7h9-----9---------------------|
A|----------------------------------------------------|
E|----------------------------------------------------|#/9t2##/9t1#

#10t1#            C   D        Am7
#10t2#E|----------7-----------------------------------------|
B|---7-8-10---10-8-7-7h8---10b12-10-8-----------------|
G|-9---------------------9----------------------------|
D|----------------------------------------------------|
A|----------------------------------------------------|
E|----------------------------------------------------|#/10t2##/10t1#

#11t1#             C   D    Em7(9)/F#            G
#11t2#E|-----------7------------------h.n-12-----3----------|
B|----7-8-10---10-8---7-7-------h.n-12-----3----------|
G|--9---------------------7----------------0----------|
D|--------------------------5p4------------0----------|
A|-----------------------------------------2----------|
E|-----------------------------------------3----------|#/11t2##/11t1#
Composição: Jorge BarcelosColaboração e revisão: Gustavo CunhaBreno Edmilson Reismatheus santiagoe mais 10
Videoaula Aí Já Era (aula de violão completa)