Não Aprendi Dizer Adeus

Leandro & Leonardo

Bm
234
X24432
C
123
X32010
D
123
XX0232
D7
123
XX0212
Em
12
022000
G
1234
320033
Tom: G
Intro: C  G  D7  G (pausa)

Primeira Estrofe:

                    G (passagem)
Não aprendi dizer adeus
                    C
Não sei se vou me acostumar
                         D7
Olhando assim nos olhos teus

Sei que vai ficar nos meus
                 G (pausa)
A marca desse olhar

Segunda Estrofe:

                      G (passagem)
Não tenho nada pra dizer
                     C
Só o silêncio vai falar por mim
                        G
Eu sei guardar a minha dor
                  D7
Apesar de tanto amor vai ser
          G (passagem)
Melhor assim

Refrão:
                    C
Não aprendi dizer adeus
                   D
Mas tenho que aceitar
                  Bm
Que amores vêm e vão
               Em
São aves de verão
             D7
Se tens que me deixar
                  G (passagem)
Que seja, então, feliz
               
                    C
Não aprendi dizer adeus
               D
Mas deixo você ir
                   Bm
Sem lágrimas no olhar
                  Em
Se o adeus me machucar
                  D7
O inverno vai passar
           G (passagem)
E apaga a cicatriz

Intro: C  G  D7  G (pausa)

Segunda Estrofe:

                      G (passagem)
Não tenho nada pra dizer
                     C
Só o silêncio vai falar por mim
                        G
Eu sei guardar a minha dor
                  D7
Apesar de tanto amor vai ser
          G (passagem)
Melhor assim

Refrão:
                    C
Não aprendi dizer adeus
                   D
Mas tenho que aceitar
                  Bm
Que amores vêm e vão
             Em
São aves de verão
                   D7
Se tens que me deixar
                  G (passagem)
Que seja, então, feliz

                    C
Não aprendi dizer adeus
               D
Mas deixo você ir
                   Bm
Sem lágrimas no olhar
                Em
Se adeus me machucar
                  D7
O inverno vai passar
           G (passagem)
E apaga a cicatriz

                    C
Não aprendi dizer adeus
                   D
Mas tenho que aceitar
                  Bm
Que amores vêm e vão
             Em
São aves de verão
                   D7
Se tens que me deixar
                  G (passagem)
Que seja, então, feliz

                    C
Não aprendi dizer adeus
               D
Mas deixo você ir
                   Bm
Sem lágrimas no olhar
                Em
Se adeus me machucar
                  D7
O inverno vai passar
           G
E apaga a cicatriz


Solo Intro:

Parte 1

#1t1##1t2#E|-2/3-3-3-3-3-3--3--2/3-3-3-3-3-3--6/7---------------|
B|----------------------------------------------------|
G|-3/4-4-4-4-4-4--5--4/5-5-5-5-5-5--6/7---------------|
D|----------------------------------------------------|
A|----------------------------------------------------|
E|----------------------------------------------------|#/1t2##/1t1#

Parte 2

#2t1##2t2#E|-10--8-7------7-5---10-10-7-7-5-5-3-----------------|
B|-12-10-8-10-8---------------------------------------|
G|---------11-9-7-5---11-11-7-7-5-5-4-----------------|
D|----------------------------------------------------|
A|----------------------------------------------------|
E|----------------------------------------------------|#/2t2##/2t1#

Ritmo Intro:

Parte 1
   
#3t1#   C
#3t2#E|---0-0-0----0-0-0----0-0-0----0-0-0-------|
B|---1-1-1----1-1-1----1-1-1----1-1-1-------|
G|---0-0-0----0-0-0----0-0-0----0-0-0-------|
D|---2-2-2----2-2-2----2-2-2----2-2-2-------|
A|-3-----------------3----------------------|
E|----------3-----------------3-------------|#/3t2##/3t1#

Parte 2
   
#4t1#   G
#4t2#E|---3-3-3----3-3-3----3-3-3----3-3-3-------|
B|---3-3-3----3-3-3----3-3-3----3-3-3-------|
G|---0-0-0----0-0-0----0-0-0----0-0-0-------|
D|---0-0-0--0-0-0-0----0-0-0--0-0-0-0-------|
A|------------------------------------------|
E|-3-----------------3----------------------|#/4t2##/4t1#

Parte 3
   
#5t1#   D7
#5t2#E|---2-2-2----2-2-2----2-2-2----2-2-2-------|
B|---1-1-1----1-1-1----1-1-1----1-1-1-------|
G|---2-2-2----2-2-2----2-2-2----2-2-2-------|
D|-0-----------------0----------------------|
A|----------0-----------------0-------------|
E|------------------------------------------|#/5t2##/5t1#

Parte 4 (pausa)
   
#6t1#   G
#6t2#E|---3-3-3----3-3-3--3----------------------|
B|---3-3-3----3-3-3--3----------------------|
G|---0-0-0----0-0-0--0----------------------|
D|---0-0-0--0-0-0-0--0----------------------|
A|-------------------2----------------------|
E|-3-----------------3----------------------|#/6t2##/6t1#

Ritmo Primeira Estrofe:

Parte 1 (passagem)

#7t1#   G
#7t2#E|---3-3-3----3-3-3----3---3---3---3--------|
B|---3-3-3----3-3-3----3---3---3---3--------|
G|---0-0-0----0-0-0----0---0---0---0--------|
D|---0-0-0--0-0-0-0-------------------------|
A|---------------------------0---2----------|
E|-3-----------------3---3------------------|#/7t2##/7t1#

Parte 2

#8t1#   C
#8t2#E|---0-0-0----0-0-0----0-0-0----0-0-0-------|
B|---1-1-1----1-1-1----1-1-1----1-1-1-------|
G|---0-0-0----0-0-0----0-0-0----0-0-0-------|
D|---2-2-2----2-2-2----2-2-2----2-2-2-------|
A|-3-----------------3----------------------|
E|----------3-----------------3-------------|#/8t2##/8t1#

Parte 3
   
#9t1#   D7
#9t2#E|---2-2-2----2-2-2----2-2-2----2-2-2-------|
B|---1-1-1----1-1-1----1-1-1----1-1-1-------|
G|---2-2-2----2-2-2----2-2-2----2-2-2-------|
D|-0-----------------0----------------------|
A|----------0-----------------0-------------|
E|------------------------------------------|#/9t2##/9t1#

Parte 4 (pausa)
   
#10t1#   G
#10t2#E|---3-3-3----3-3-3--3----------------------|
B|---3-3-3----3-3-3--3----------------------|
G|---0-0-0----0-0-0--0----------------------|
D|---0-0-0--0-0-0-0--0----------------------|
A|-------------------2----------------------|
E|-3-----------------3----------------------|#/10t2##/10t1#

Ritmo Segunda Estrofe:

Parte 1 (passagem)

#11t1#   G
#11t2#E|---3-3-3----3-3-3----3---3---3---3--------|
B|---3-3-3----3-3-3----3---3---3---3--------|
G|---0-0-0----0-0-0----0---0---0---0--------|
D|---0-0-0--0-0-0-0-------------------------|
A|---------------------------0---2----------|
E|-3-----------------3---3------------------|#/11t2##/11t1#

Parte 2

#12t1#   C
#12t2#E|---0-0-0----0-0-0----0-0-0----0-0-0-------|
B|---1-1-1----1-1-1----1-1-1----1-1-1-------|
G|---0-0-0----0-0-0----0-0-0----0-0-0-------|
D|---2-2-2----2-2-2----2-2-2----2-2-2-------|
A|-3-----------------3----------------------|
E|----------3-----------------3-------------|#/12t2##/12t1#

Parte 3

#13t1#   G                 D7
#13t2#E|---3-3-3----3-3-3----2-2-2---2-2-2--------|
B|---3-3-3----3-3-3----1-1-1---1-1-1--------|
G|---0-0-0----0-0-0----2-2-2---2-2-2--------|
D|---0-0-0--0-0-0-0--0----------------------|
A|---------------------------0--------------|
E|-3----------------------------------------|#/13t2##/13t1#

Parte 4 (passagem)

#14t1#   G
#14t2#E|---3-3-3----3-3-3----3---3---3---3--------|
B|---3-3-3----3-3-3----3---3---3---3--------|
G|---0-0-0----0-0-0----0---0---0---0--------|
D|---0-0-0--0-0-0-0-------------------------|
A|---------------------------0---2----------|
E|-3-----------------3---3------------------|#/14t2##/14t1#

Ritmo refrão 2x:

Parte 1

#15t1#   C                 D
#15t2#E|---0-0-0----0-0-0----2-2-2----2-2-2-------|
B|---1-1-1----1-1-1----3-3-3----3-3-3-------|
G|---0-0-0----0-0-0----2-2-2----2-2-2-------|
D|---2-2-2----2-2-2--0----------------------|
A|-3--------------------------0-------------|
E|----------3-------------------------------|#/15t2##/15t1#

Parte 2

#16t1#   Bm                Em
#16t2#E|---2-2-2----2-2-2----0-0-0----0-0-0-------|
B|---3-3-3----3-3-3----0-0-0----0-0-0-------|
G|---4-4-4----4-4-4----0-0-0----0-0-0-------|
D|---4-4-4----4-4-4----2-2-2----2-2-2-------|
A|-2--------------------------2-------------|
E|----------2--------0----------------------|#/16t2##/16t1#

Parte 3
   
#17t1#   D7
#17t2#E|---2-2-2----2-2-2----2-2-2----2-2-2-------|
B|---1-1-1----1-1-1----1-1-1----1-1-1-------|
G|---2-2-2----2-2-2----2-2-2----2-2-2-------|
D|-0-----------------0----------------------|
A|----------0-----------------0-------------|
E|------------------------------------------|#/17t2##/17t1#

Parte 4 (passagem)

#18t1#   G
#18t2#E|---3-3-3----3-3-3----3---3---3---3--------|
B|---3-3-3----3-3-3----3---3---3---3--------|
G|---0-0-0----0-0-0----0---0---0---0--------|
D|---0-0-0--0-0-0-0-------------------------|
A|---------------------------0---2----------|
E|-3-----------------3---3------------------|#/18t2##/18t1#
Composição: Joel MarquesColaboração e revisão: Leandro SandimJúnior SennaLucas MonteiroTiago Lopese mais 2
Videoaula Não Aprendi Dizer Adeus (violão completa)