busca

O Outro Lado da Vida

Mamonas Assassinas

Tom: D
Intro:

E|------------------------------------------|
B|------------------------------------------|
G|------------------------------------------|
D|-----9-7-10-9-7----9-7-10~--2x------------|
A|-7-7-7-5-8--7-5----7-5-8~-----------------|
E|------------------------------------------|


E|------------------------------------------|
B|------------------------------------------|
G|------------------------------------------|
D|-----9-7--9-7--9-7---9-10-----------------|
A|-7-7-7-5--7-5--7-5---7-8------------------|
E|------------------------------------------|

A                  E
Vejam as pessoas que me cercam,
 Bm                  D
Todos alegres entre eles,
A                  E
Sinto que me falta algo,
              D
Para que eu possa sentir esse outro lado da vida

A               E
Minha vida tem varias faces,
 Bm                    D
Mas eu me encontro tão só
A                    E
Sinto que vivo uma cópia,
   D
De um sofrimento que nunca senti

A                    G
Se não tivesse me iludido,
      F#m
Teria sido menor pra mim,
A               G
Nem tudo que passou
    D
Se pode explicar

A                   G
Minha mente está confusa,
     F#m
Tudo gira dentro de mim
A    G         D
Como uma tempestade

( A  G  F#m  A  G  D )
E|--------------------------------|-------15--------14-------------|
B|-14~~-15~~--12----14--10--------|-14~~-----15--12------15~~------|
G|---------------12--------11~~---|--------------------------------|
D|--------------------------------|--------------------------------|
A|--------------------------------|--------------------------------|
E|--------------------------------|--------------------------------|

A             E
E o dia se torna tão chato
Bm                     D
Fico a falar com as paredes
A                   E
Os meus amigos não podem me ver
         D
Como é difícil encontrar

Esse outro lado da vida

A                   E
Talvez não seja só sofrimento
Bm                 D
Fico sonhando acordado,
A                    E
Mas meus amigos não podem me ver
          D
Como é difícil encontrar

Esse outro lado da vida

A                    G
Se não tivesse me iludido,
      F#m
Teria sido melhor pra mim,
A               G
Nem tudo que passou
    D
Se pode explicar

A                   G
Minha mente está confusa,
     F#m
Tudo gira dentro de mim
A    G         D
Como uma tempestade

( A  G  F#m  A  G  D )

Clipes