busca

Para Onde Eu Irei?

Ministério Morada

Tom: Am
[Primeira Parte]

           C
Ele abriu mão de Sua glória
              E7
Sangrou no madeiro por mim
         Am7     G     F9
Me conectou, salvou curou

           C
Ele me deu um destino
               E7
Uma capa e um pouco de vinho
              Am7    G      F7M
Ele me deu unção, cajado e pão

[Primeira Parte]

Parte 1

   C                E7
E|------------------------------------------|
B|-----1-------1--------3-------3-----------|
G|-0-------0--------1-------1---------------|
D|---2---2---2---2----2---2---2---2---------|
A|-3----------------------------------------|
E|------------------0-----------------------|

Parte 2

   Am7      G        F9
E|-----0--------3--------3-------3----------|
B|-1--------0--------1-------1--------------|
G|---0---0----0---0----2---2---2---2--------|
D|-------------------3----------------------|
A|-0----------------------------------------|
E|----------3-------------------------------|

Parte 1

   C                E7
E|------------------------------------------|
B|-----1-------1--------3-------3-----------|
G|-0-------0--------1-------1---------------|
D|---2---2---2---2----2---2---2---2---------|
A|-3----------------------------------------|
E|------------------0-----------------------|

Parte 2 (com variação)

   Am7      G        F7M
E|-----0--------3--------0------------------|
B|-1--------0--------1----------------------|
G|---0---0----0---0----2--------------------|
D|-------------------3----------------------|
A|-0----------------------------------------|
E|----------3-------------------------------|

[Segunda Parte]

         Dm7(9)
Pôs um anel em meu dedo
      C/E
Me tirou o medo
          F9              C/E
Novas sandálias pra suportar o ide

         Dm7(9)
Pôs um anel em meu dedo
      C/E
Me tirou o medo
          F9
Novas sandálias e disse vai

[Segunda Parte]

Parte 1

   Dm7(9)           C/E
E|-----0-------0--------3-------3-----------|
B|-1-------1--------1-------1---------------|
G|---2---2---2---2----0---0---0---0---------|
D|-0----------------2-----------------------|
A|------------------------------------------|
E|------------------------------------------|

Parte 2

   F9               C/E
E|-----3-------3--------3-------3-----------|
B|-1-------1--------1-------1---------------|
G|---2---2---2---2----0---0---0---0---------|
D|-3----------------2-----------------------|
A|------------------------------------------|
E|------------------------------------------|

Parte 1

   Dm7(9)           C/E
E|-----0-------0--------3-------3-----------|
B|-1-------1--------1-------1---------------|
G|---2---2---2---2----0---0---0---0---------|
D|-0----------------2-----------------------|
A|------------------------------------------|
E|------------------------------------------|

Parte 3

   F9
E|-----3-------3----------------------------|
B|-1-------1--------0--1--3-----------------|
G|---2---2---2---2--------------------------|
D|-3----------------------------------------|
A|---------------------0--2-----------------|
E|------------------3-----------------------|

[Pré-refrão]

  F7M
E eu me despedi dos meus pais
Am7
Eu queimei minhas carroças
  F7M                        G   G4  G
E eu afundei meus barcos no cais
  F7M
E eu me despedi dos meus pais
Am7
Eu queimei minhas carroças
  F7M                        G   G4  G
E eu afundei meus barcos no cais

[Refrão]

F7M
    Pra onde eu irei 

Se eu não tenho pra onde voltar
Am7
    Só tenho Você, Deus
Em7
   Palavra de vida eterna

F7M
    Pra onde eu irei 

Se eu não tenho pra onde voltar
Am7
    Só tenho Você, Deus
Em7
   Palavra de vida eterna

F7M
    Pra onde eu irei 
G
  Se eu não tenho pra onde voltar
Am7
    Só tenho Você, Deus
Em7
   Palavra de vida eterna

F7M
    Pra onde eu irei 
G
  Se eu não tenho pra onde voltar
Am7
    Só tenho Você, Deus
Em7
   Palavra de vida eterna

F7M
    Pra onde eu irei 
G
  Se eu não tenho pra onde voltar
Am7
    Só tenho Você, Deus
Em7
   Palavra de vida eterna

F7M
    Pra onde eu irei 
G
  Se eu não tenho pra onde voltar
Am7
    Só tenho Você, Deus
Em7
   Palavra de vida eterna

[Final]

 F9   G              Am7
Sou, sou totalmente Teu
 Em               F9
Fui encontrado pelo Teu amor
   G
Pelo Teu amor

 F9   G              Am7
Sou, sou totalmente Teu
 Em                    F9
Fui contemplado em ser um com você
    G
Ser um com você
    F9
Ser um com você
    G
Ser um com você
    F9
Ser um com você
    G
Ser um

[Final – Primeira Estrofe]

Parte 1

   F9               G
E|------------------------------------------|
B|-1---1---1---1----0---0---0---0-----------|
G|---0---0---0---0----0---0---0---0---------|
D|-3----------------------------------------|
A|------------------------------------------|
E|------------------3-----------------------|

Parte 2

   Am7             Em
E|------------------------------------------|
B|-1---1---1---1----0---0---0---0-----------|
G|---0---0---0---0----0---0---0---0---------|
D|------------------------------------------|
A|-0----------------------------------------|
E|------------------0-----------------------|

Parte 1

   F9               G
E|------------------------------------------|
B|-1---1---1---1----0---0---0---0-----------|
G|---0---0---0---0----0---0---0---0---------|
D|-3----------------------------------------|
A|------------------------------------------|
E|------------------3-----------------------|

[Final – Segunda Estrofe]

Parte 1

   F9               G
E|------------------------------------------|
B|-1---1---1---1----0---0---0---0-----------|
G|---0---0---0---0----0---0---0---0---------|
D|-3----------------------------------------|
A|------------------------------------------|
E|------------------3-----------------------|

Parte 2

   Am7             Em
E|------------------------------------------|
B|-1---1---1---1----0---0---0---0-----------|
G|---0---0---0---0----0---0---0---0---------|
D|------------------------------------------|
A|-0----------------------------------------|
E|------------------0-----------------------|

Parte 3 (2x)

   F9           G
E|-------3-3--------------------------------|
B|-----1-----1--------3-3-------------------|
G|---0--------------0-----0-----------------|
D|-3--------------0-------------------------|
A|------------------------------------------|
E|--------------3---------------------------|

Parte 3 (final)

   F9           G
E|-------3-3--------------------------------|
B|-----1-----1--------3---------------------|
G|---0--------------0-----------------------|
D|-3--------------0-------------------------|
A|------------------------------------------|
E|--------------3---------------------------|

Clipes

Cifra Club Pro

Aproveite o Cifra Club com benefícios exclusivos e sem anúncios
Cifra Club Pro
Aproveite o Cifra Club com benefícios exclusivos e sem anúncios