Tom: G

e|-----------------------|-------
B|---------------2--4----|-------
G|---5-5-5-------2--4----|---(5)-
D|---5-5-5--5-5--0--2----|---(5)-
A|---3-3-3--5-5----------|---(3)-
E|----------3-3----------|-------

e|---------------------------------------- 
B|---------------------------------------- 
G|----(5)---(5)-(4)-(5)------------------- 
D|(5)-(5)---(5)-(4)-(5)------------------- 
A|(5)-(3)---(3)-(2)-(3)------------------- 
E|(3)------------------------------------- 



e|--------------------------------
B|--------------------------------
G|---5-5-5-5-5--x-x-x-x-x-x-x-x-x-
D|---5-5-5-5-5--x-x-x-x-x-x-x-x-x-
A|---3-3-3-3-3--x-x-x-x-x-x-x-x-x-
E|--------------x-x-x-x-x-x-x-x-x-

e|----------------------------------
B|----------------------------------
G|-5-5-5-5-5--x-x-x-x-x-x-x-x-x-x---
D|-5-5-5-5-5--x-x-x-x-x-x-x-x-x-x---
A|-3-3-3-3-3--x-x-x-x-x-x-x-x-x-x---
E|------------x-x-x-x-x-x-x-x-x-x---



|---------------------------------
|---------------------------------
|---5-5-5-5-5--x-x-x-x-x-x-x-x-x--
|---5-5-5-5-5--x-x-x-x-x-x-x-x-x--
|---3-3-3-3-3--x-x-x-x-x-x-x-x-x--
|--------------x-x-x-x-x-x-x-x-x--

||----------      
||----------      
||---5------\     
||---5------ [2x] 
||---3------/     
||----------      


Ending solo e|------------------------- B|------------------------- G|-----5h4h3h0-[3x]-------- D|------------------------- A|---3------------0-1-2-3-- E|------------------------- e|---------------------------------------------- B|---------------------------------------------- G|5h4h3h0-[3x]-------5h4h3h0-[3x]--------------- D|---------------------------------------------- A|----------0-1-2-3-------------0-1-2-3--0-1-2-3 E|---------------------------------------------- e|------------------------------ B|------------------------------ G|----------------------------5- D|---------------2-------------- A|---0-1-2-3---3---3--3-3-3-3--- E|-----------3------------------ e|----------------------------------------- B|----------------------------------------- G|----------------------------------------- D|----------------------------------------- A|3/slide off------------------------------ E|-----------------------------------------
Composição: TitoColaboração e revisão: Yuri Castro