busca

Barbie Girl

Mxpx

Tom: C#
*=Palm Mute

Intro:A# F# G# C# 
 toka a intro  6x
e|---------------------------|
B|---------------------------|
G|---------------------------|
D|--8~~~--4~~~--6~~~--11~~~--| 
A|--8~~~--4~~~--6~~~--11~~~--|
E|--6-----2-----4~~~--9~~~---|

ae vai de gosto eu prefiro toka aki(D#*G#)
e|---------------------------|
B|---------------------------|
G|---------------------------|
D|--2----------------6-------|
A|--1-----4-----6----4-------|
E|--------2-----4------------|

Refrão:
 repita tudo 4x
e|------------------------------------------|
B|------------------------------------------|
G|------------------------------------------|
D|--8-8-8-8--4-4-4-4--6-6-6-6--11-11-11-11--| 
A|--8-8-8-8--4-4-4-4--6-6-6-6--11-11-11-11--|
E|--6-6-6-6--2-2-2-2--4-4-4-4--9--9--9--9---|

ou:
e|-----------------------------------------|
B|-----------------------------------------|
G|-----------------------------------------|
D|--2-2-2-2-------------------6-6-6-6------|
A|--1-1-1-1-4-4-4-4--6-6-6-6--4-4-4-4------|
E|----------2-2-2-2--4-4-4-4---------------|

Pré refrão:

Parte em qe a barbie canta

e|--------------------------------------------|
B|--------------------------------------------|
G|--------------------------------------------|
D|--8~~~--4~~~--6~~~6-6-6--11~~--10~~---------|
A|--8~~~--4~~~--6~~~6-6-6--11~~--10~~---------|
E|--6~~~--2~~~--4~~~4-4-4--9~~~--8~~~---------|
                    * * *

ou:
e|--------------------------------------------|
B|--------------------------------------------|
G|--------------------------------------------|
D|--2~~~-------------------6~~~--5~~~---------|
A|--1~~~--4~~~--6~~~6-6-6--4~~~--3~~~---------|
E|--------2~~~--4~~~4-4-4---------------------|
                    * * * 

verso em qe o ken kanta


e|--------------------------------------------------------|
B|--------------------------------------------------------|
G|--------------------------------------------------------|
D|--8-8-8-8--4-4-4-4--6-6-6-6--11-11-11-11--10-10-10-10---|
A|--8-8-8-8--4-4-4-4--6-6-6-6--11-11-11-11--10-10-10-10---|
E|--6-6-6-6--2-2-2-2--4-4-4-4--9--9--9--9---8--8--8--8----|
    * * * *  * * * *  * * * *  *  *  *  *   *  *  *  *
ou:
e|--------------------------------------------------------|
B|--------------------------------------------------------|
G|--------------------------------------------------------|
D|--2-2-2-2--------------------6-6-6-6--5-5-5-5-----------|
A|--1-1-1-1--4-4-4-4--6-6-6-6--4-4-4-4--3-3-3-3-----------|
E|-----------2-2-2-2--4-4-4-4-----------------------------|
 Hm*****************************************************

ponte:

e|---------------------------------------------|
B|---------------------------------------------|
G|--------------------6-6-6-6-7-7-7-7----------|
D|------------8-8-8-8-8-8-8-8-8-8-8-8----------|
A|--8-8-8-8-8-8-8-8-8-8-8-8-8-8-8-8-8----------|
E|--6-6-6-6-6-6-6-6-6-6-6-6-6-6-6-6-6----------|

ou faça o acorde ein A# na 1ªcasa na corda a

e|---------------------------------------------------------------------|
B|---------------------------------------------------------------------|
G|---------------------------------------------------------------------|
D|---------------------------------------------------------------------|
A|-8-8-8-4-4-4-11-11-11-10-10-10-8-8-8-8-4-4-4-11x11x------------------|
E|-6-6-6-2-2-2-9--9--9--8--8--8--6-6-6-6-2-2-2-9xx9xx------------------|

                          2x tudo

parte do final em qe o ken kanta
e|-----------------------------------------------|
B|-----------------------------------------------|
G|-----------------------------------------------|
D|-----------------------------------------------|
A|--4-4-4-8-8-8-11-11-11-11--10-10-10-11---------|
E|--2-2-2-4-4-4-9--9--9--9---8--8--8--9----------|

Refrão

Fim
e|--------------------------|
B|--------------------------|
G|--------------------------|
D|-8-8-8-8-8-8--4-4--11--8--|
A|-8-8-8-8-8-8--4-4--11--8--|
E|-6-6-6-6-6-6--2-2--9---6--|

Sequência da musik

intro:A# F# G# C#

refrão:A# F# G# C# 

barbie cantando:A# F# G# C# C

ken cantadando:A# F# G# C# C abafado

ponte:A# A# A#/C

2ª parte da ponte:A# F# C# C A# F# C# A# F# C# C F# G# C# C C#

Clipes

Cifra Club Pro

Aproveite o Cifra Club com benefícios exclusivos e sem anúncios
7 dias grátis
Cifra Club Pro
Aproveite o Cifra Club com benefícios exclusivos e sem anúncios
7 dias grátis