Barbie Girl

Mxpx

Ab
234
431114
Bb
234
X13331
Bb/C
1234
X3X331
Db
234
X46664
Gb
234
244322
Tom: G
*=Palm Mute

Intro:Bb Gb Ab Db 
 toka a intro  6x
#1t1##1t2#e|---------------------------|
B|---------------------------|
G|---------------------------|
D|--8~~~--4~~~--6~~~--11~~~--| 
A|--8~~~--4~~~--6~~~--11~~~--|
E|--6-----2-----4~~~--9~~~---|#/1t2##/1t1#

#2t1#ae vai de gosto eu prefiro toka aki(D#*G#)
#2t2#e|---------------------------|
B|---------------------------|
G|---------------------------|
D|--2----------------6-------|
A|--1-----4-----6----4-------|
E|--------2-----4------------|#/2t2##/2t1#

Refrão:
 repita tudo 4x
#3t1##3t2#e|------------------------------------------|
B|------------------------------------------|
G|------------------------------------------|
D|--8-8-8-8--4-4-4-4--6-6-6-6--11-11-11-11--| 
A|--8-8-8-8--4-4-4-4--6-6-6-6--11-11-11-11--|
E|--6-6-6-6--2-2-2-2--4-4-4-4--9--9--9--9---|#/3t2##/3t1#

#4t1#ou:
#4t2#e|-----------------------------------------|
B|-----------------------------------------|
G|-----------------------------------------|
D|--2-2-2-2-------------------6-6-6-6------|
A|--1-1-1-1-4-4-4-4--6-6-6-6--4-4-4-4------|
E|----------2-2-2-2--4-4-4-4---------------|#/4t2##/4t1#

Pré refrão:

Parte em qe a barbie canta

#5t1##5t2#e|--------------------------------------------|
B|--------------------------------------------|
G|--------------------------------------------|
D|--8~~~--4~~~--6~~~6-6-6--11~~--10~~---------|
A|--8~~~--4~~~--6~~~6-6-6--11~~--10~~---------|
E|--6~~~--2~~~--4~~~4-4-4--9~~~--8~~~---------|
                    * * *#/5t2##/5t1#

#6t1#ou:
#6t2#e|--------------------------------------------|
B|--------------------------------------------|
G|--------------------------------------------|
D|--2~~~-------------------6~~~--5~~~---------|
A|--1~~~--4~~~--6~~~6-6-6--4~~~--3~~~---------|
E|--------2~~~--4~~~4-4-4---------------------|
                    * * * #/6t2##/6t1#

verso em qe o ken kanta


#7t1##7t2#e|--------------------------------------------------------|
B|--------------------------------------------------------|
G|--------------------------------------------------------|
D|--8-8-8-8--4-4-4-4--6-6-6-6--11-11-11-11--10-10-10-10---|
A|--8-8-8-8--4-4-4-4--6-6-6-6--11-11-11-11--10-10-10-10---|
E|--6-6-6-6--2-2-2-2--4-4-4-4--9--9--9--9---8--8--8--8----|
    * * * *  * * * *  * * * *  *  *  *  *   *  *  *  *#/7t2##/7t1#
#8t1#ou:
#8t2#e|--------------------------------------------------------|
B|--------------------------------------------------------|
G|--------------------------------------------------------|
D|--2-2-2-2--------------------6-6-6-6--5-5-5-5-----------|
A|--1-1-1-1--4-4-4-4--6-6-6-6--4-4-4-4--3-3-3-3-----------|
E|-----------2-2-2-2--4-4-4-4-----------------------------|#/8t2##/8t1#
 Hm*****************************************************

ponte:

#9t1##9t2#e|---------------------------------------------|
B|---------------------------------------------|
G|--------------------6-6-6-6-7-7-7-7----------|
D|------------8-8-8-8-8-8-8-8-8-8-8-8----------|
A|--8-8-8-8-8-8-8-8-8-8-8-8-8-8-8-8-8----------|
E|--6-6-6-6-6-6-6-6-6-6-6-6-6-6-6-6-6----------|#/9t2##/9t1#

ou faça o acorde ein A# na 1ªcasa na corda a

#10t1##10t2#e|---------------------------------------------------------------------|
B|---------------------------------------------------------------------|
G|---------------------------------------------------------------------|
D|---------------------------------------------------------------------|
A|-8-8-8-4-4-4-11-11-11-10-10-10-8-8-8-8-4-4-4-11x11x------------------|
E|-6-6-6-2-2-2-9--9--9--8--8--8--6-6-6-6-2-2-2-9xx9xx------------------|#/10t2##/10t1#

                          2x tudo

#11t1#parte do final em qe o ken kanta
#11t2#e|-----------------------------------------------|
B|-----------------------------------------------|
G|-----------------------------------------------|
D|-----------------------------------------------|
A|--4-4-4-8-8-8-11-11-11-11--10-10-10-11---------|
E|--2-2-2-4-4-4-9--9--9--9---8--8--8--9----------|#/11t2##/11t1#

Refrão

#12t1#Fim
#12t2#e|--------------------------|
B|--------------------------|
G|--------------------------|
D|-8-8-8-8-8-8--4-4--11--8--|
A|-8-8-8-8-8-8--4-4--11--8--|
E|-6-6-6-6-6-6--2-2--9---6--|#/12t2##/12t1#

Sequência da musik

intro:Bb Gb Ab Db

refrão:Bb Gb Ab Db 

barbie cantando:A# F# G# C# C

ken cantadando:A# F# G# C# C abafado

ponte:Bb Bb Bb/C

2ª parte da ponte:A# F# C# C A# F# C# A# F# C# C F# G# C# C C#
Composição: Colaboração e revisão: Élison Duartevinicius terlizziBiazita Justo