The Darkest Places

Mxpx

Tom: G
Deslize depois da introdução com a bateria:

#1t1#verso 1
#1t2#e|---------------------------------------------------------------------------|
B|---------------------------------------------------------------------------|
G|5--------------------------------------------------------------------------|
D|5-x16--3-----5-------------------------------------------------------------|
A|3------3-x4--5-x4----------------------------------------------------------|
E|-------1-----3-------------------------------------------------------------|#/1t2##/1t1#

#2t1#Pre-chorus:
#2t2#e|--------------------------------------------------------------------------|
B|--------------------------------------------------------------------------|
G|--------------------------------------------------------------------------|
D|7-----5-----3-------------------------------------------------------------|
A|7-x4--5-x4--3-x4----------------------------------------------------------|
E|5-----3-----1-------------------------------------------------------------|#/2t2##/2t1#

#3t1#Solo:
#3t2#e|--------------------------------------------------------------------------|
B|--------------------------------------------------------------------------|
G|5/-9-9-7-10-9-7-5-5-9-9-7-12-10-9-7-5-7-7-10-9-7-7-9-10~------------------|
D|--------------------------------------------------------------------------|
A|--------------------------------------------------------------------------|
E|--------------------------------------------------------------------------|#/3t2##/3t1#

#4t1#Rythm part after solo:
#4t2#e|--------------------------------------------------------------------------|
B|--------------------------------------------------------------------------|
G|7-----9-----10------------------------------------------------------------|
D|7-x8--9-x8--10-x8---------------------------------------------------------|
A|5-----7-----8-------------------------------------------------------------|
E|--------------------------------------------------------------------------|#/4t2##/4t1#
Composição: MIke HerreraColaboração e revisão: Iason Pippi