busca

The Darkest Places

Mxpx

Tom: F
Deslize depois da introdução com a bateria:

verso 1
e|---------------------------------------------------------------------------|
B|---------------------------------------------------------------------------|
G|5--------------------------------------------------------------------------|
D|5-x16--3-----5-------------------------------------------------------------|
A|3------3-x4--5-x4----------------------------------------------------------|
E|-------1-----3-------------------------------------------------------------|

Pre-chorus:
e|--------------------------------------------------------------------------|
B|--------------------------------------------------------------------------|
G|--------------------------------------------------------------------------|
D|7-----5-----3-------------------------------------------------------------|
A|7-x4--5-x4--3-x4----------------------------------------------------------|
E|5-----3-----1-------------------------------------------------------------|

Solo:
e|--------------------------------------------------------------------------|
B|--------------------------------------------------------------------------|
G|5/-9-9-7-10-9-7-5-5-9-9-7-12-10-9-7-5-7-7-10-9-7-7-9-10~------------------|
D|--------------------------------------------------------------------------|
A|--------------------------------------------------------------------------|
E|--------------------------------------------------------------------------|

Rythm part after solo:
e|--------------------------------------------------------------------------|
B|--------------------------------------------------------------------------|
G|7-----9-----10------------------------------------------------------------|
D|7-x8--9-x8--10-x8---------------------------------------------------------|
A|5-----7-----8-------------------------------------------------------------|
E|--------------------------------------------------------------------------|

Clipes

Cifra Club Pro

Aproveite o Cifra Club com benefícios exclusivos e sem anúncios
Cifra Club Pro
Aproveite o Cifra Club com benefícios exclusivos e sem anúncios