busca

Mountain Dew

Mxpx

Tom: D
intro

  D        G  B  A  G  A  C#
|------------------------------------------------|
|------------------------------------------------|
|------------------------------------------------|
|-7-7-7-7-----------------6----------------------| 4x
|-5-5-5-5--5--9--7--5--7--4----------------------|
|----------3--7--5--3--5-------------------------|

versos

  D        G        B        A        G  F# C# D
|------------------------------------------------|
|------------------------------------------------|
|------------------------------------------------|
|-7-7-7-7-----------------------------------6--7-|
|-5-5-5-5--5-5-5-5--9-9-9-9--7-7-7-7--5--4--4--5-|
|----------3-3-3-3--7-7-7-7--5-5-5-5--3--2-------|

D                    
Where do you wanna go
G                    
What do you wanna do
B                    A               G F# C# D                   
Well do you want to drink Mountain Dew (yeah)

2ºverso 

 D        G        B        A     C# D
|------------------------------------------------|
|------------------------------------------------|
|------------------------------------------------|
|-7-7-7-7-------------------------6--7-----------|
|-5-5-5-5--5-5-5-5--9-9-9-9--7....4--5-----------|
|----------3-3-3-3--7-7-7-7--5....---------------|

D                       
I think its getting late
G                            
And I can't stand up straight
B               
I'm so thirsty
A                             C# D  
I could use a different taste tonight

Refrão

  D                G          A
|------------------------------------------------|
|------------------------------------------------|
|------------------------------------------------|
|-7-7-7-7-7-7-7-7--------------------------------|    2x o refrão
|-5-5-5-5-5-5-5-5--5-5-5-5-5--7-7-7-7-7----------|
|------------------3-3-3-3-3--5-5-5-5-5----------|

D
Mountain Dew in my head and on mind
G                           A
Mountain Dew in my hand and I'm feeling fine

metade da intro

refrão

Clipes

Cifra Club Pro

Aproveite o Cifra Club com benefícios exclusivos e sem anúncios
Cifra Club Pro
Aproveite o Cifra Club com benefícios exclusivos e sem anúncios