Mountain Dew

Mxpx

A
123
X02220
B
234
X24442
C#
234
X46664
D
123
XX0232
F#
234
244322
G
123
320003
Tom: G
intro

#1t1#  D        G  B  A  G  A  C#
#1t2#|------------------------------------------------|
|------------------------------------------------|
|------------------------------------------------|
|-7-7-7-7-----------------6----------------------| 4x
|-5-5-5-5--5--9--7--5--7--4----------------------|
|----------3--7--5--3--5-------------------------|#/1t2##/1t1#

versos

#2t1#  D        G        B        A        G  F# C# D
#2t2#|------------------------------------------------|
|------------------------------------------------|
|------------------------------------------------|
|-7-7-7-7-----------------------------------6--7-|
|-5-5-5-5--5-5-5-5--9-9-9-9--7-7-7-7--5--4--4--5-|
|----------3-3-3-3--7-7-7-7--5-5-5-5--3--2-------|#/2t2##/2t1#

D                    
Where do you wanna go
G                    
What do you wanna do
B                    A               G F# C# D                   
Well do you want to drink Mountain Dew (yeah)

2ºverso 

#3t1# D        G        B        A     C# D
#3t2#|------------------------------------------------|
|------------------------------------------------|
|------------------------------------------------|
|-7-7-7-7-------------------------6--7-----------|
|-5-5-5-5--5-5-5-5--9-9-9-9--7....4--5-----------|
|----------3-3-3-3--7-7-7-7--5....---------------|#/3t2##/3t1#

D                       
I think its getting late
G                            
And I can't stand up straight
B               
I'm so thirsty
A                             C# D  
I could use a different taste tonight

Refrão

#4t1#  D                G          A
#4t2#|------------------------------------------------|
|------------------------------------------------|
|------------------------------------------------|
|-7-7-7-7-7-7-7-7--------------------------------|    2x o refrão
|-5-5-5-5-5-5-5-5--5-5-5-5-5--7-7-7-7-7----------|
|------------------3-3-3-3-3--5-5-5-5-5----------|#/4t2##/4t1#

D
Mountain Dew in my head and on mind
G                           A
Mountain Dew in my hand and I'm feeling fine

metade da intro

refrão
Composição: Colaboração e revisão: vinicius terlizzi