busca

Chick Magnet

Mxpx

Tom: C
Riff de Baixo (intro e canto):
A|--0--3--2--0-----------------        
E|--------------3--0--1--0--1--3


Guitarra (Riff entre um verso e outro):
 C  
|-------------------------|
|-------------------------|
|---5-----5---5-----------|
|-----5-----5-------------|
|-3------------pick slide-|
|-------------------------|

Riff 1
C  -  F  -  E  -  F  -  G


Guitarra (Riff do refrão):
A  -  C - G 


Letra:

Riff (entre um verso e outro)

Well he's a chick magnet, if ya know what I mean
The way the girlies just go to him
Well ya should've seen the guy 
yeah he's got style and it's plain to see
smooth shoes and cool tattoos
hair pomped as tight as can be

Riff 1

He ain't got a girlfriend, 
no one to sing this song to
He's gonna settle down,
if he meets that special girl soon

Riff do refrão

He knows just what to do, 
when it comes to the girls
He writes them poetry
and he picks them flowers 
He knows just what to say
when it comes to the ladies
Knows how make a girls smile
how to drive a girl crazy


na parte que ele fla chick magnet e talz fika no riff 1

Clipes