busca

Lamento Realengo

Nando Reis

Tom: C
Intro: Am Em Am Em Dm Am Em C

 Am
Deus do céu
                                  Em
Para onde que foi tudo que perdi? Vai pro céu
                               Dm
Quem não acha nesse mundo o seu (um) lugar?
 Am
Adeus e o céu
                              Em
É o balcão da eternidade achada e perdida?
 G
Fez inverno
                                       Em
No verão da vida de quem não encontraremos mais?
  Am
Desse resto
                                      Em
Que sobrou na imensidão do amor partido Desse mar
                          Dm          Am
Que o sertão irreversível não vai molhar
 Dm
Desce o véu
                       G
Do matrimônio em viuvez enegrecida
  Am
Um deserto
                       Em
Vastidão muda de sino a badalar

Riff: 
  
  e|------------------------------------------|
  B|------------------------------------------|
  G|------------------------------------------|
  D|------------2--0--------------------------|
  A|-0--0-2-3-0------0------------------------|
  E|------------------------------------------|

  e|------------------------------------------|
  B|------------------------------------------|
  G|------------------------------------------|
  D|-----------2------------------------------|
  A|--0-2-3-0---------------------------------|
  E|------------------------------------------|

 
Em
Quem me ajuda a trazer
 F           Dm            F
As estrelas e a lua pra essa noite
 Dm
Quem tem fome e deseja
          C
Comer cada nuvem no céu
É muito bom bom bom
  F#m            Em
Mas sem perder o tom
  Am             Em
Que faz cantar e amar
 Dm
A eternidade  É madrugada
Am   Em
Ainda
 Dm
Na eternidade
 Em
A madrugada
 Am
É linda

  e|------------------------------------------|
  B|------------------------------------------|
  G|------------------------------------------|
  D|------------2--0--------------------------|
  A|-0--0-2-3-0------0------------------------|
  E|------------------------------------------|

  e|------------------------------------------|
  B|------------------------------------------|
  G|------------------------------------------|
  D|-----------2--5-2-------------------------|
  A|--0-2-3-0---------------------------------|
  E|------------------------------------------|

  e|------------------------------------------|
  B|------------------------------------------|
  G|------------------------------------------|
  D|------------2--0--------------------------|
  A|-0--0-2-3-0------0------------------------|
  E|------------------------------------------|

  e|------------------------------------------|
  B|------------------------------------------|
  G|------------------------------------------|
  D|-----------2------------------------------|
  A|--0-2-3-0---------------------------------|
  E|------------------------------------------|

Clipes

Cifra Club Pro

Aproveite o Cifra Club com benefícios exclusivos e sem anúncios
7 dias grátis
Cifra Club Pro
Aproveite o Cifra Club com benefícios exclusivos e sem anúncios
7 dias grátis