busca

Malandrinha

Natiruts

Baixo 5 Cordas (B-E-A-D-G)

Riff 1
G|--------------------------------------------------| 1x
D|-------7----------7----5-5-5--5-5-5--5-5-5--5-5-5-|
A|-5-5-8---0--5-5-8---0-----------------------------|
E|--------------------------------------------------|
B|--------------------------------------------------|

Riff 2
G|---------------------------------------------------------| 1x
D|-------------------------------------------5-5---5-5---5-|
A|-3-3---3-3---3---------------5-5---5-5---5-----5-----5---|
E|-----3-----3---5-5---5-5---5-----5-----5-----------------|
B|-------------------5-----5-------------------------------|

Clipes