busca

Perdido de Amor

Natiruts

Afinação: Baixo 5 Cordas Padrão ( B-E-A-D-G )

00:02
G|------------------------------------------| 1x
D|------------------------------------------|
A|------------------------------------------|
E|-\5----1----3----5----1----5--------------|
B|------------------------------------------|

00:18
G|------------------------------------------| 6x
D|-------------7----------------------------|
A|--------10-8--------7----5----------------|
E|-8-8-10---------8-8---8-------------------|
B|---------------------------6~-------------|

00:45
G|------------------------------------------| 6x
D|---------------7-7-10---------------------|
A|--------10-8-8--------------10-8-8-7-7----|
E|-8-8-10----------------8-10------------8--|
B|------------------------------------------|

01:15
G|------------------------------------------| 4x
D|-------------7----------------------------|
A|--------10-8--------7----5----------------|
E|-8-8-10---------8-8---8-------------------|
B|---------------------------6~-------------|

01:35
G|------------------------------------------| 2x
D|------------------------------------------|
A|------------------------------------------|
E|-----3---------3~------3-3---------2-2-5~-|
B|-5-5---5-3-5-5-----1-1-----5~--3-3--------|

01:50
G|------------------------------------------| 5x
D|-------------7----------------------------|
A|--------10-8--------7----5----------------|
E|-8-8-10---------8-8---8-------------------|
B|---------------------------6~-------------|

02:15
G|------------------------------------------| 1x
D|-------------7----------------------------|
A|--------10-8------------------------------|
E|-8-8-10-----------------------------------|
B|------------------------------------------|

02:18
G|------------------------------------------| 4x
D|---------------7-7-10---------------------|
A|--------10-8-8--------------10-8-8-7-7----|
E|-8-8-10----------------8-10------------8--|
B|------------------------------------------|

02:38
G|------------------------------------------| 2x
D|------------------------------------------|
A|------------------------------------------|
E|-----3---------3~------3-3---------2-2-5~-|
B|-5-5---5-3-5-5-----1-1-----5~--3-3--------|

02:53
G|------------------------------------------| 6x
D|-------------7----------------------------|
A|--------10-8--------7----5----------------|
E|-8-8-10---------8-8---8-------------------|
B|---------------------------6~-------------|

03:23
G|------------------------------------------| 2x
D|---------------7-7-10---------------------|
A|--------10-8-8--------------10-8-8-7-7----|
E|-8-8-10----------------8-10------------8--|
B|------------------------------------------|

03:33
G|------------------------------------------| 2x
D|------------------------------------------|
A|------------------------------------------|
E|-----3---------3~------3-3---------2-2-5~-|
B|-5-5---5-3-5-5-----1-1-----5~--3-3--------|

03:48
G|------------------------------------------| 4x
D|---------------7-7-10---------------------|
A|--------10-8-8--------------10-8-8-7-7----|
E|-8-8-10----------------8-10------------8~-|
B|------------------------------------------|

Clipes