busca

Praia Dos Golfinhos

Natiruts

Tom: E
(intro) E7+/9 A7+

(solo)
          E7+/9                  A7+
E |------------------------------4h5p4----------------  |       --------
B |--4h5p4--------------------6--------5---5------5---  |       -5/7/5--
G |---------4---4------------------------6---6------6-  | (2x)  -6/8/6--
D |-----------6----6----------------------------------  |       --------
A |---------------------------------------------------  |       --------
E |---------------------------------------------------  |       --------

E7+/9           A7+
Tempo ensinou,  pra ter liberdade
E7+/9           A7+
Mais que amor,  devo ter coragem
E7+/9           A7+
Pode trocar     sua jóia cara
F#m7                                C#m7
Por três cores de um pôr de sol         Ou seis animais de Deus
F#m7                            C#m7
Por três cores de um pôr de sol
B            B7+        C#m7
Se um senti..mento meu  For a tempo de tocar
B7+                     C#m7
Um pêlo de corpo seu Terei permissão pra dar
G#m7                            
Coisas que não posso ver Apenas posso sentir
E7+                             D#º
É a vontade de ver o meu povo sorrir
              C#m7       Bbº
E poder fa....lar de     novo
B    Bbº      E7+
Não me  deixe   só
C#m7       D#m7   G#m7
Seu des....tino é meu
A7+                  G#m7
E minha vida sofrerá se eu não vir longe
        C#m7                 A
Seu sorriso sob o sol   e golfinhos sobre o mar

(solo 4x)
G#7+ C#7+
Cm  G#7+ Fm Gm Cm C#7+ Cm Fm C#7+ C7+

E |-------------------------------------------------------------------------------
B |---------------------------------------11b13b11-9------9-11b13b11-9h11h9-8~~---
G |-------------------------8---8h10~~-10------------8/10-------------------------
D |-----6-6-8-8/10~---------------------------------------------------------------
A |-6/8-------------8h10h11---11--------------------------------------------------

E |--------11/13131313-------------------11----11~11~------11----11-11~11~~-11----
B |------9-------------9---9~--9-9-11/13----13--------11h13---13------------------
G |-8/10-----------------10-------------------------------------------------------
D |-------------------------------------------------------------------------------
A |-------------------------------------------------------------------------------

E |-11/15-14-13---13-1313~-15-13-13~~1313-------1313-----------------------------13--
B |-------------14------------------------14b16--------------------------------------
G |-------------------------------------------------15b17rb15-13---12-13-15-15b17----
D |--------------------------------------------------------------15------------------
A |----------------------------------------------------------------------------------

E |-11-9-8-9-8h9h8------11~----11~--11~11~--11~--11~-11~11/13~-13\-------------------
B |----------------11b13~~-11b13~~--9~-8~--8h9h8-------------------------------------
G |----------------------------------------------10~-8~-8/10~--10\-------------------
D |----------------------------------------------------------------------------------
A |----------------------------------------------------------------------------------

E |-----------------11----------------------11-8-11-8/10~-10--10-13-10-1313-10-1313---
B |-----8-9-11-11b13--11b13~~~~rb11-9~~---9-----------------11------------------------
G |-8/10--------------------------------10--------------------------------------------
D |-----------------------------------------------------------------------------------
A |-----------------------------------------------------------------------------------

E |-10-13-13b15-13b15~~-13b16rb15~~-15-15b16rb15-15-----------------------------------
B |------------------------------------------------16---------------------------------
G |--------------------------------------------------15-13-12-13-12h13h12-------------
D |----------------------------------------------------------------------13-----------
A |-----------------------------------------------------------------------13-13\11----

E |-15-15b16rb15-p13--------16-------------------------------------------------------
B |-----------------16-16b18~~-16h18~~rb16~-13-16-16b18~18rb16~-13~~-----------------
G |-----------------------------------------------------------------15b17-15b17~-----
D |----------------------------------------------------------------------------------
A |----------------------------------------------------------------------------------

E |------------------------------------15h12-----------------------------------------
B |-13-16b18~18rb16-14~~-14-14h16-13~~------13h12------------------------------------
G |----------------------------------------------12----------------------------------
D |------------------------------------------------14--------12-12/14-12/14~~~~------
A |--------------------------------------------------15-14-15------------------------

Clipes

Cifra Club Pro

Aproveite o Cifra Club com benefícios exclusivos e sem anúncios
7 dias grátis
Cifra Club Pro
Aproveite o Cifra Club com benefícios exclusivos e sem anúncios
7 dias grátis