busca

Dois

Rionegro e Solimões

Tom: A
Intro:
E|-/9-7-10-9---/5-4-7-6------7/5-------|
B|----------------------5/7------------|
G|-/9-8-11-9---/6-4-7-6----------------|

A           E
Quando você disse nunca mais
F#m                       D
Não ligue mais, melhor assim
 Bm                          E
Não era bem o que eu queria ouvir (riff 1)B|------------|
                                          G|--2-4-4/6---|
                                          D|-2----------|
A          E         F#m              D
E me disse decidida, saia da minha vida
Bm                      E
Que aquilo era loucura, era absurdo
A          E
E mais uma vez você ligou
F#m                    D
Dias depois, me procurou
Bm                            E
Com a voz suave, quase que formal
A           E              F#m
E disse que não era bem assim
                         D
Não necessariamente o fim
Bm                          E E4 E
De uma coisa tão bonita e casual

Bm                   F#m
De repente as coisas mudam de lugar
D                      E
E quem perdeu pode ganhar
Bm                 F#m
Teu silêncio preso na minha garganta
D                 E
E o medo da verdade...

A  E        D         E
Eu sei que eu, eu queria estar contigo
A  E        D         E
Mas sei que não, sei que não é permitido
A  E        D         E
Talvez se nós, se nós tivéssemos fugido
A  E        D         E
E ouvido a voz desse desconhecido,
A  E        D         E
O amor, o amor, o amor, o amor...

A        E         F#m                     D
Essa voz que chega devagar, pra perturbar, pra enlouquecer
Bm                            E
Dizendo pra eu pular de olhos fechados
A            E       F#m
Essa voz que chega a debochar do meu pavor
          D   Bm                       E
Mas ao pular, eu me vejo ganhar asas e voar, ôô

Bm                   F#m
De repente as coisas mudam de lugar
D                      E
E quem perdeu pode ganhar
Bm                  F#m
Minha amiga, minha namorada,
D                                 E
quando é que eu posso te encontrar Iêê!

A  E        D         E
Eu sei que eu, eu queria estar contigo
A  E        D         E
Mas sei que não, sei que não é permitido
A  E        D         E
Talvez se nós, se nós tivéssemos fugido
A  E        D         E
E ouvido a voz desse desconhecido,

A  E        D         E
Eu sei que eu, eu queria estar contigo
A  E        D         E
Mas sei que não, sei que não é permitido
A  E        D         E
Talvez se nós, se nós tivéssemos fugido
A  E        D         E
E ouvido a voz desse desconhecido,
A  E        D         E
O amor, o amor, o amor, o amor...A           

E|-9---9--9-----9--9---9-------4--4--4-4--4-4-4--------|
B|--10--10--9-----9--10----------5--5-3----3-5---------|
G|------------11---------11-------------6*-----6-------|(2x)
D|-----------------------------------------------------|
A|-----------------------------------------------------|
E|-----------------------------------------------------|
                    *a segunda vez para aqui 
E|---------5-4--------------------------------------|
B|------------5-5/7-7/9-5----------------2--2-3-3/5-|
G|-----------------------------1-2-1-2-4--4---------|
D|-------------------------2-4----------------------|
A|--------------------------------------------------|
E|-0-1-2--------------------------------------------|

A        E         F#m                     D
Essa voz que chega devagar, pra perturbar, pra enlouquecer
Bm                            E
Dizendo pra eu pular de olhos fechados
A            E       F#m
Essa voz que chega a debochar do meu pavor
          D   Bm                       E
Mas ao pular, eu me vejo ganhar asas e voar, ôô

Bm                   F#m
De repente as coisas mudam de lugar
D                      E
E quem perdeu pode ganhar
Bm                  F#m
Minha amiga, minha namorada,
D                                 E
quando é que eu posso te encontrar Iêê!

A  E        D         E
Eu sei que eu, eu queria estar contigo
A  E        D         E
Mas sei que não, sei que não é permitido
A  E        D         E
Talvez se nós, se nós tivéssemos fugido
A  E        D         E
E ouvido a voz desse desconhecido,

A  E        D         E
Eu sei que eu, eu queria estar contigo
A  E        D         E
Mas sei que não, sei que não é permitido
A  E        D         E
Talvez se nós, se nós tivéssemos fugido
A  E        D         E
E ouvido a voz desse desconhecido,
A  E        D         E
O amor, o amor, o amor, o amor...
E|-9---9--9-----9--9---9-------4--4--4-4--4-4-4--------|
B|--10--10--9-----9--10----------5--5-3----3-5---------|
G|------------11---------11-------------6*-----6-------|(2x)
D|-----------------------------------------------------|
A|-----------------------------------------------------|
E|-----------------------------------------------------|
                    *a segunda vez para aqui 
E|---------5-4-------------------------------|
B|------------5-5/7-7/9-5----5---------------|
G|------------------------4/6--6/4-2-----2---|
D|-----------------------------------2h4-----|
A|-------------------------------------------|
E|-0-1-2-------------------------------------|

Clipes

Cifra Club Pro

Aproveite o Cifra Club com benefícios exclusivos e sem anúncios
Cifra Club Pro
Aproveite o Cifra Club com benefícios exclusivos e sem anúncios