busca

Romantica

Rionegro e Solimões

Tom: C
Solo: toca com a nota C de baixo para cima

E|-----------------|
B|---1-0-----------|
G|-0-----2-2-0-----|
D|-------------0-2-|
A|-----------------|
E|-----------------|

E|---------------------|
B|---1-0---------------|
G|-0-----2-2|-4-4-|5---|
D|---------------------|
A|---------------------|
E|---------------------|

E|----------------|
B|---1-0----------|
G|-0-----0--------|
D|----------------|
A|----------------|
E|----------------|

C
Venha comigo quero ser seu alvo
       F
Ser a caça ao te caçar,
           C
Guardar na pele essa vontade
           F
Quando te ver me saciar,
G
Eu sei toquei voou,
    F
Voltou pra mim, romântica,
G
Não sei viver sem ti,
     F          G
Não quero mais apenas que me sinta...

C
Não é pecado não tem tradução
         F
O som batendo no seu coração,
C
E com você não tem segredos,
            F
Sempre esperar, nova estação,
G                            F                    C
É toque é intenso é gosto é cheiro, o nosso amor.

(Repete)

Final 2x: Não é pecado... o nosso amor.

O nosso amor

Clipes

Cifra Club Pro

Aproveite o Cifra Club com benefícios exclusivos e sem anúncios
Cifra Club Pro
Aproveite o Cifra Club com benefícios exclusivos e sem anúncios