busca

Vida de Cão

Rionegro e Solimões

Tom: C
Intro: C7  F  C  G  C  G  C

                         C7           F

E|-----------------------------------------------------|
B|--1/5-5-5---3-3h5p3---1-1-1/6--6--6h8p6--------------|
G|-----------------------------------------------------|
D|-----------------------------------------------------|
A|--3/7-7-7---5-5-------3-3-3/8--8--8------------------|
E|-----------------------------------------------------|

                 C                G               C         G                   C

E|--------------------------------------------------------------------------------|
B|--------6-6-5-5--------3-5-5-3-3-------3-6-5-3-3-5-----------3------------------|
G|----5-7--------------5---------------4-------------5-----2/4---4\2-0---0--------|
D|--7----------------5---------------5---------------------------------2---2-0----|
A|-----------------------------------------------------------------------------3--|
E|--------------------------------------------------------------------------------|

C                     G
  Já faz tanto tempo que tudo acabou
                F          C
  Mas meu coração com a solidão não se acostumou
           C7       F
  Eu só penso nela não tem solução
               C
  Saudade sufoca o dia inteiro
                   G
  Quando chega a noite é um desespero
                  C
  Não aguento mais, ô vida de cão

Refrão:
        C7           F
  Dê alguma coisa aí pra eu beber
                    C
  Pois já não consigo me controlar
                  G
  Esse amor passou todos os limites
         F       C
  Eu tô precisando desabafar

        C7           F
  Dê alguma coisa ai pra eu beber
               C
  Não se preocupe se eu chorar
              G
  Tô apaixonado desesperado
                      C
  Vou ficar maluco se ela não voltar

Clipes

Cifra Club Pro

Aproveite o Cifra Club com benefícios exclusivos e sem anúncios
Cifra Club Pro
Aproveite o Cifra Club com benefícios exclusivos e sem anúncios