É Uma Partida de Futebol

Skank

A
123
X02220
A7(9+)
1234
5455XX
D
123
XX0232
D5
134
X577XX
E
123
022100
G
123
320003
Tom: G
[Intro] A  D5  G  A  A7(9+)
        A  D5  G  A  A7(9+)
        A  D5  G  A  A7(9+)
        A  D5  G  A  A7(9+)


Parte 1 de 3
   A                  D5
E|-------------------------------
B|-2-2---2------------3-3-x--3---
G|-2-2-x-2------------2-2-x--2---
D|-2-2-x-2------------0-0-x--0---
A|-0-0-x-0---0-3h4---------------
E|-------------------------------

E|----------| 
B|3-3-3-----| 
G|2-2-2-----| 
D|0-0-0-----| 
A|----------| 
E|----------| 



Parte 2 de 3
   G                 A   A7(9+)
E|--------------------------------
B|-------------------2---13-------
G|-0-0-x-0-----------2---12-------
D|-0-0-x-0-----------2---11-------
A|-2-2-x-2-----------0---0--------
E|-3-3-x-3-| —-0-3/4--------------



Parte 3 de 3
   G                 A   A7(9+)
E|--------------------------------
B|-------------------2---13-13----
G|-0-0-x-0-----------2---12-12----
D|-0-0-x-0-----------2---11-11----
A|-2-2-x-2-----------0---0--0-----
E|-3-3-x-3-| —-0-3/4--------------


[Refrão]

 A
Bola na trave não altera o placar

Bola na área sem ninguém pra 
cabecear

Bola na rede pra fazer o gol
      G
Quem não sonhou
                          A
Em ser um jogador de futebol

[Primeira Parte]

      A
A bandeira no estádio é um 
estandarte

A flâmula pendurada na parede do 
quarto

O distintivo na camisa do uniforme
     G                          
Que coisa linda é uma partida de 
      A
futebol

[Segunda Parte]

( A  D  E )
( A  D  E )


Parte 1 de 3
   A
E|--------------------------------
B|-2-2-x---------2-2--------------
G|-2-2-x---------2-2--------------
D|-2-2-x---------2-2--------------
A|-0-0-x--4-4-4--0-0--------------
E|--------------------------------



Parte 2 de 3
   D
E|-2-2-x---------2-2--------------
B|-3-3-x---------3-3--------------
G|-2-2-x---------2-2--------------
D|-0-0-x--4-4-4--0-0--------------
A|--------------------------------
E|--------------------------------


Parte 3 de 3 E E|-0-0-----------0-0-------------- B|-0-0-----------0-0-------------- G|-1-1-x---------1-1-------------- D|-2-2-x---------2-2-------------- A|-2-2-x---------2-2-------------- E|-0-0-x--4-4-4--0-0-------------- [Primeira Parte] A Posso morrer pelo meu time Se ele perder, que dor, imenso crime Eu posso chorar se ele não ganhar Mas se ele ganha não adianta G Não há garganta que não pare de A berrar A A chuteira veste o pé descalço O tapete da realeza é verde Olhando pra bola eu vejo o Sol G Está rolando agora A É uma partida de futebol A O meio campo é o lugar dos craques Que vão levando o time todo pro ataque O centroavante, o mais importante G Que emocionante é uma partida de A futebol [Segunda Parte] ( A D E ) ( A D E ) ( A D E ) ( A D E ) [Repete a Intro] A D5 G A A7(9+) A D5 G A A7(9+) [Primeira Parte] A O meu goleiro é um homem de elástico Os dois zagueiros têm a chave do cadeado Os laterais fecham a defesa G Mas que beleza é uma partida de A futebol [Refrão] A Bola na trave não altera o placar Bola na área sem ninguém pra cabecear Bola na rede pra fazer o gol G Quem não sonhou A Em ser um jogador de futebol [Primeira Parte] A O meio campo é o lugar dos craques Que vão levando o time todo pro ataque O centroavante, o mais importante G Que emocionante é uma partida de A futebol [Segunda Parte] ( A D E ) ( A D E ) ( A D E ) ( A D E ) ( A D E A )
Composição: Nando Reis / Samuel RosaColaboração e revisão: Gustavo CunhaMateus RodriguesRaul Salesclaudete silvae mais 4
Videoaula É Uma Partida De Futebol (completa)