Borboletas

Victor e Leo

A
123
X02220
A/C#
1234
X4X255
Bm
234
X24432
D
123
XX0232
Em
12
022000
F#
234
244322
G
123
320003
Tom: G
[Intro] Bm  A
        A  Bm  G  A

#1t1##1t2#E|-------------------------------5----------|
B|---------------------------------3h5-3-3--|
G|-------6h7p6------------6h7p6/4-----------|
D|-----9-------9--------9-------------------|
A|-7h9-----------9--7h9---------------------|
E|------------------------------------------|#/1t2##/1t1#

#2t1##2t2#E|------------------------------------------|
B|------------------------------------------|
G|------------------------------------------|
D|--7-9-9-7--9-7---9--9-7---9-9-7-----------|
A|-9-------9-----9--------9------9----------|
E|------------------------------------------|#/2t2##/2t1#

#3t1##3t2#E|------------------------------------------|
B|------------------------------------------|
G|------------------------------------------|
D|---7-7-4--7-4---7--7-4---7-7-4------------|
A|--------7-----7--------7------7-----------|
E|------------------------------------------|#/3t2##/3t1#

#4t1##4t2#E|------------------------------------------|
B|------------------------------------------|
G|---7-7-6--7-6---7--7-6---7-7-6------------|
D|--------7-----7--------7------7-----------|
A|------------------------------------------|
E|------------------------------------------|#/4t2##/4t1#

#5t1##5t2#E|------------------------------------------|
B|------------------------------------------|
G|------------------------------------------|
D|-9--9-7-9-7-------------------------------|
A|-9--9-7-9-7-------------------------------|
E|------------------------------------------|#/5t2##/5t1#

#6t1#   G        A       Bm
#6t2#E|---3-3-3----0-0-0---2-2-2-----------------|
B|---3-3-3----2-2-2---2-3-2-----------------|
G|---0-0-0--2-2-2-2---4-4-4-----------------|
D|-0-0-0-0--2-2-2-2---4-4-4-----------------|
A|-2--------0-------2-----------------------|
E|-3----------------------------------------|#/6t2##/6t1#

[Primeira Parte]

    Bm                      D
Percebo que o tempo já não passa
                       A     Bm
Você diz que não tem graça amar assim
                           D
Foi tudo tão bonito, mas voou pro infinito
     A             Bm
Parecido com borboletas de um jardim

[Pré-Refrão]

Em            G
  Agora você volta
     D                         A
E balança o que eu sentia por outro alguém
Em                     G
  Dividido entre dois mundos
                A                        Bm
Sei que estou amando mas ainda não sei quem

[Refrão]
           G           D
Não sei dizer o que mudou
     A           Bm
Mas nada está igual
      G                D           A            Bm
Numa noite estranha a gente se estranha e fica mal
   G           D       A              Bm
Você tenta provar que tudo em nós morreu
      G            D
Borboletas sempre voltam
     A             Bm
E o seu jardim sou eu

[Solo] Bm  D  A  F#  G  A  Bm

#7t1##7t2#E|-14-14-14---15-15-15---14-14-14-14-14-14--|
B|-15-15-15---15-15-15---15-15-15-15-15-15--|
G|------------------------------------------|
D|------------------------------------------|
A|------------------------------------------|
E|------------------------------------------|#/7t2##/7t1#

#8t1##8t2#E|-15-15-14-14------------------------------|
B|-15-15-15-15------------------------------|
G|------------------------------------------|
D|------------------------------------------|
A|------------------------------------------|
E|------------------------------------------|
E|-14-14-14---15-15-15---14-14-14-14-14-14--|
B|-15-15-15---15-15-15---15-15-15-15-15-15--|
G|------------------------------------------|
D|------------------------------------------|
A|------------------------------------------|
E|------------------------------------------|#/8t2##/8t1#

#9t1##9t2#E|-15-15-14-14---14-14-14--15-15-15---------|
B|-15-15-15-15---15-15-15--15-15-15---------|
G|------------------------------------------|
D|------------------------------------------|
A|------------------------------------------|
E|------------------------------------------|#/9t2##/9t1#

#10t1##10t2#E|--14-14-14-14-14-14/12--12-12-12/9--9--9--|
B|--15-15-15-15-15-15/14--14-14-14/11-11-11-|
G|------------------------------------------|
D|------------------------------------------|
A|------------------------------------------|
E|------------------------------------------|#/10t2##/10t1#

#11t1#                 G        A       Bm
#11t2#E|-----------------3-3-3----0-0-0---2-2-2---|
B|-----------------3-3-3----2-2-2---2-3-2---|
G|-----------------0-0-0--2-2-2-2---4-4-4---|
D|-9--9-7-9-7----0-0-0-0--2-2-2-2---4-4-4---|
A|-9--9-7-9-7----2--------0-------2---------|
E|---------------3--------------------------|#/11t2##/11t1#

[Primeira Parte]

    Bm                      D
Percebo que o tempo já não passa
                       A     Bm
Você diz que não tem graça amar assim
                           D
Foi tudo tão bonito, mas voou pro infinito
     A             Bm
Parecido com borboletas de um jardim

[Pré-Refrão]

Em            G
  Agora você volta
     D                         A
E balança o que eu sentia por outro alguém
Em                     G
  Dividido entre dois mundos
                A                        Bm
Sei que estou amando mas ainda não sei quem

[Refrão]
           G           D
Não sei dizer o que mudou
     A           Bm
Mas nada está igual
      G                D           A            Bm
Numa noite estranha a gente se estranha e fica mal
   G           D       A              Bm
Você tenta provar que tudo em nós morreu
      G            D
Borboletas sempre voltam
     A             Bm
E o seu jardim sou eu

           G           D  A/C#  Bm
Não sei dizer o que mudou
     A           Bm
Mas nada está igual
      G                D           A            Bm
Numa noite estranha a gente se estranha e fica mal
   G           D       A              Bm
Você tenta provar que tudo em nós morreu
      G            D
Borboletas sempre voltam
     A             Bm
E o seu jardim sou eu

[Final]

#12t1##12t2#E|-14-14-14---15-15-15---14-14-14-14-14-14--|
B|-15-15-15---15-15-15---15-15-15-15-15-15--|
G|------------------------------------------|
D|------------------------------------------|
A|------------------------------------------|
E|------------------------------------------|#/12t2##/12t1#

#13t1##13t2#E|-15-15-14-14------------------------------|
B|-15-15-15-15------------------------------|
G|------------------------------------------|
D|------------------------------------------|
A|------------------------------------------|
E|------------------------------------------|#/13t2##/13t1#
Composição: Victor ChavesColaboração e revisão: Getúlio VasconcelosAdriane Diasluis ignacioLeonardoe mais 10
Videoaula Borboletas (aula de violão simplificada)