busca

Ela Quica

Wesley Safadão

Tom: A#
Intro: Gm Cm Dm

                                  Cm               Dm                Gm
E|---------------------13--10--------------------------------------10----------|
B|---------10--11--------------13--13-13-13--11-13-13--11-13-13-11-------------|
G|-12--12----------12----------------------------------------------------------|
D|-----------------------------------------------------------------------------|
A|-----------------------------------------------------------------------------|
E|-----------------------------------------------------------------------------|

                                  Cm               Dm                Gm
E|---------------------13--10--------------------------------------------------|
B|---------10--11--------------13--13-13-13--11-13-13--11-13-13-10-------------|
G|-12--12----------12----------------------------------------------12----------|
D|-----------------------------------------------------------------------------|
A|-----------------------------------------------------------------------------|
E|-----------------------------------------------------------------------------|

                                     Cm                      Dm               Gm
E|----------------------------------------------------------10-10-10~-----------|
B|-------11-------11--------11----11-13--10-11-13--10-11-13----------13-11------|         
G|-12-12----12-12-----12-12-----12------------------------------------------12~-| 
D|------------------------------------------------------------------------------|
A|------------------------------------------------------------------------------|
E|------------------------------------------------------------------------------|
                                      (2x)

Eu tô lançando mais uma
       Dm             Gm
Pra todas as novinhas

Eu tô lançando mais uma
       Dm
Pra todas as novinhas

Gm
Ela quica,ela para
          Cm
Rebola,ela trava
             Dm
Ela abre,ela fecha
             Gm
Na ponta ela fica
      (2x)

Eu tô lançando mais uma
       Dm             Gm
Pra todas as novinhas
      (2x)

Gm
Ela quica,ela para
          Cm
Rebola,ela trava
             Dm
Ela abre,ela fecha
             Gm
Na ponta ela fica
      (2x)

Gm         Cm
Na na na na
           Dm       Gm
Pra todas as novinhas

Eu tô lançando mais uma
       Dm             Gm
Pra todas as novinhas


Repete o solo da intro

Clipes