busca

Mulher Do Patrão

Wesley Safadão

Tom: G#
Intro: Cm G# G

E|-------------------------------|-------------------------------|
B|-------------------------------|-------------------------------|
G|--------------------8-8--12-12-|--------------------8-8--12-12-|
D|-10--10-10-10---10-------------|-10--10-10-10----10------------|
A|-------------------------------|-------------------------------|
E|-------------------------------|-------------------------------|

E|--------------8-8--------|-------------------------------| Cm G# G
B|-9--9-9-9---9-----11-9-8-|--8-8-8--9-8-------------------|
G|-------------------------|--------------8-10-8-----------|
D|-------------------------|----------------------10-10-10-|
A|-------------------------|-------------------------------|
E|-------------------------|-------------------------------|

solo original

Refrão 2x:
Cm                                    G#
Ela é a primeira dama, a mulher do patrão
                 G                 Cm
Novinha sedutora ela gosta de pressão
                                               G#
Ela só gosta de quem tem, ela só quer tudo do bom
                        G                    Cm
À sua coleção de melissa, ela só chupa da kibom.

        G#                      G                        Cm
Novinha sedutora, ela chega roubando a cena, quando chega no forró é causadora de problema.
                                           G#
Mas o mano já está ligado, não olha, não mete,
                         G                   Cm        G        Cm
essa franginha já tem dono é a mulher do chefe.Não olha, não mexe

                                   G#
É a primeira dama a mulher do patrão
                  G                  Cm
Novinha sapequinha, só gosta de pressão.

                       G#
Mas é só dia de rainha só dia de princesinha
                        G                      Cm
Shopping e casa de praia só riqueza pras novinhas.
             G#                        G                         Cm
Ela é toda patricinha, da blusa decotadinha, chama o bonde das novinha que hoje vai rolar orgia.

Clipes