Before I Close My Eyes

XXXTENTACION

A
123
X02220
A9
12
X02200
C#m9
234
X46854
Tom: G
[Intro]


E|-------------------------|------
B|-----0-----------0-------|------
G|--6----6-----6-----6-----|------
D|----7----7-----7-----7---|------
A|-------------------------|------
E|-------------------------|------

E|------------------------------| 
B|-----0---------------0--------| 
G|9------9--------9------9------| 
D|--11-----11-------11-----11---| 
A|------------------------------| 
E|------------------------------| 


   A
Before I lay me down to sleep
   C#m9
I pray the Lord my soul to keep
   A9                           
I hope it's not too late for me, 
  C#m9
whoa
    A
Before I lay me down to sleep
    C#m9
I pray the Lord my soul to keep
A9 I hope it's not too late for me, C#m9 whoa A9 C#m9 Difference changing in the distance A9 C#m9 Time consumes the image, oh A9 C#m9 Difference changing in the distance A9 C#m9 Time consumes the image, oh A Before I lay me down to sleep C#m9 I pray the Lord my soul to keep A9 I hope it's not too late for me, C#m9 whoa A Before I lay me down to sleep C#m9 I pray the Lord my soul to keep A9 I hope it's not too late for me, C#m9 whoa
Composição: XXXTENTACIONColaboração e revisão: Gabriel Silvapedro teixeiraJoão SantosFrancisco Bressae mais 1