busca

King

XXXTENTACION

Tom: C
[Intro] C G Em

E|----------------------------------------------|
B|-----0---0-------0---0-------0---0------0---0-|
G|-------0-----------0-----------0----------0---|
D|---2----------2------------0----------0-------|
A|-3----------3---------------------------------|
E|-------------------------3----------3---------|

Leave me alone, I
Wanna go home, it's
All in my head, I won't be upset if
Leave me alone, I
Wanna go home, it's
All in my head, I won't be upset if
Heartbroken, misspoken, breaking anything I touch
I'm not in love, I won't let you control what I want
Hate me, won't break me, I'm killing everyone I love
Hate me won't break me, I'm killing everyone I love

F7M                 G6/E
Hey, you, hey, you, you, what, hey, you
F7M                  E
Hey, you, you, what, you, you, you

         C                       G        Em
E|----------------------------------------------|
B|-----0---0-------0---0-------0---0------0---0-|
G|-------0-----------0-----------0----------0---|
D|---2----------2------------0----------0-------|
A|-3----------3-----------------------2---------|
E|-------------------------3--------------------|

Hate me, won't break me, I'm killing everyone I love
Hate me, won't break me, I'm killing everyone I love

Clipes

Cifra Club Pro

Aproveite o Cifra Club com benefícios exclusivos e sem anúncios
Cifra Club Pro
Aproveite o Cifra Club com benefícios exclusivos e sem anúncios