C
123
X32010
E
123
022100
Em
12
022000
F7M
1234
1X221X
G
123
320003
G6/E
1
020000
Tom: G
[Intro] C G Em


E|-------------------------------
B|-----0---0-------0---0-------0-
G|-------0-----------0-----------
D|---2----------2------------0---
A|-3----------3------------------
E|-------------------------3-----

E|---------------| 
B|--0------0---0-| 
G|0----------0---| 
D|-------0-------| 
A|---------------| 
E|-----3---------| 


Leave me alone, I
Wanna go home, it's
All in my head, I won't be upset if
Leave me alone, I
Wanna go home, it's All in my head, I won't be upset if Heartbroken, misspoken, breaking anything I touch I'm not in love, I won't let you control what I want Hate me, won't break me, I'm killing everyone I love Hate me won't break me, I'm killing everyone I love F7M G6/E Hey, you, hey, you, you, what, hey, you F7M E Hey, you, you, what, you, you, you C E|------------------------------- B|-----0---0-------0---0-------0- G|-------0-----------0----------- D|---2----------2------------0--- A|-3----------3------------------ E|-------------------------3----- G Em E|---------------| B|--0------0---0-| G|0----------0---| D|-------0-------| A|-----2---------| E|---------------| Hate me, won't break me, I'm killing everyone I love Hate me, won't break me, I'm killing everyone I love
Composição: XXXTENTACIONColaboração e revisão: Dyego SekerFábio Gustavo