busca

Idem

Yasmin Santos

Tom: E
[Intro] F#m  A9
 
   F#m                    A9
E|-5-4-5-4----------------5-4-5-4---------------------|
B|-----------5-5/7------------------5-5h7-5~----------|
G|---------6----------------------6-------------------|
D|----------------------------------------------------|
A|----------------------------------------------------|
E|----------------------------------------------------|

[Primeira Parte]

E                       F#m
Ontem sem querer descobri
C#m                  A9
O que eu nunca imaginei
 F#m                          C#m
Sabe aquele amigo de cabelo preto
  E                                 B9
Que na semana passada eu te apresentei?

[Pré-Refrão]

     F#m
Você até me pediu
       A9                                E     
Que eu arrumasse um esquema pra você com ele
     B9
Pois é

          A9                                 B9
Fui fazer isso e na pressa não vi o que digitei
           A9
Depois que ele respondeu
        B9
Eu fui ler o que enviei

[Refrão]

                 E   E/G#
Eu digitei: Te chamo
              B9
E o corretor mandou: Te amo
               F#m
Quase que caí dura no chão
                                 A9     B9   
Ele disse: Idem, e me mandou um coração

                 E   E/G#
Eu digitei: Te chamo
              B9
E o corretor mandou: Te amo
               F#m
Quase que caí dura no chão
                                 A9     
Ele disse: Idem, e me mandou um coração

              F#m
Foi mal, mas seu lance com ele
      A9                  E
Vai ficar pra outra encarnação

[Solo] F#m  A9

E|-5-4-5-4-----------5-4-5-4--------------------------|
B|-----------5-5/7-------------5-5h7-5~---7/9-7/9-----|
G|---------6-----------------6------------------------|
D|----------------------------------------------------|
A|----------------------------------------------------|
E|----------------------------------------------------|

E|----------------------------------------------------|
B|-5/7-5~---------------------------------------------|
G|----------------------------------------------------|
D|----------------------------------------------------|
A|----------------------------------------------------|
E|----------------------------------------------------|

[Pré-Refrão]

     F#m
Você até me pediu
       A9                                E     
Que eu arrumasse um esquema pra você com ele
     B9
Pois é

          A9                                 B9
Fui fazer isso e na pressa não vi o que digitei
           A9
Depois que ele respondeu
        B9
Eu fui ler o que enviei

[Refrão]

                 E   E/G#
Eu digitei: Te chamo
              B9
E o corretor mandou: Te amo
               F#m
Quase que caí dura no chão
                                 A9     B9   
Ele disse: Idem, e me mandou um coração

                 E   E/G#
Eu digitei: Te chamo
              B9
E o corretor mandou: Te amo
               F#m
Quase que caí dura no chão
                                 A9     
Ele disse: Idem, e me mandou um coração

              F#m
Foi mal, mas seu lance com ele
      A9                  E
Vai ficar pra outra encarnação

              F#m
Foi mal, mas seu lance com ele
      A9                  E
Vai ficar pra outra encarnação

Clipes

Cifra Club Pro

Aproveite o Cifra Club com benefícios exclusivos e sem anúncios
Cifra Club Pro
Aproveite o Cifra Club com benefícios exclusivos e sem anúncios