No Dia Em Que Eu Saí De Casa

Zezé Di Camargo e Luciano

A
123
X02220
A7
12
X02020
Bm
234
X24432
D
123
XX0232
D/A
123
X0423X
E
123
022100
Tom: G
[Intro] Bm  E  A  E  A  (passagem 1)

[Passagem 1]

#1t1##1t2#E|------------------------------------------------------|
B|------------------------------------------------------|
G|------------------------------------------------------|
D|------------------------------------------------------|
A|-0----------------------------------------------------|
E|---0-2-4----------------------------------------------|#/1t2##/1t1#

[Solo Intro]

[Violão 1]

Parte 1

#2t1##2t2#E|------------------------------------------------------|
B|-12b14-12b14r12-10-12-----10b12-10b12r10-9-10---------|
G|----------------------11------------------------------|
D|------------------------------------------------------|
A|------------------------------------------------------|
E|------------------------------------------------------|#/2t2##/2t1#

Parte 2

#3t1##3t2#E|-------------------7-----5----------------------------|
B|-9b10-9b10r9-7-7/9---9\7---7\5--2b3r2-0---------------|
G|----------------------------------------2-------------|
D|------------------------------------------------------|
A|------------------------------------------------------|
E|------------------------------------------------------|#/3t2##/3t1#

[Violão 2]

Parte 1

#4t1##4t2#E|------------------------------------------------------|
B|-15b17-15b17r15-14-15-----14b15-14b15r14-12-14--------|
G|----------------------14------------------------------|
D|------------------------------------------------------|
A|------------------------------------------------------|
E|------------------------------------------------------|#/4t2##/4t1#

Parte 2

#5t1##5t2#E|--------------------------10-------9------------------|
B|-12b14-12b14r12-10--10/12----12\10---10\9--5b7r5-3-2--|
G|------------------------------------------------------|
D|------------------------------------------------------|
A|------------------------------------------------------|
E|------------------------------------------------------|#/5t2##/5t1#

[Primeira Parte]

    A
No dia em que eu saí de casa

Minha mãe me disse
            D
Filho, vem cá
    E
Passou a mão em meus cabelos

Olhou em meus olhos
           A
Começou falar

Por onde você for eu sigo
              A7
Com meu pensamento
                 D
Sempre onde estiver

Em minhas orações
    A
Eu vou pedir a Deus
    E                  A   (passagem 2)
Que ilumine os passos seus

Passagem 2

#6t1##6t2#E|------------------------------------------------------|
B|------------------------------------------------------|
G|------------------------------------------------------|
D|------------------------------------------------------|
A|-0-0-2-4----------------------------------------------|
E|------------------------------------------------------|#/6t2##/6t1#

[Refrão]

           D
Eu sei que ela nunca compreendeu
                            A
Os meus motivos de sair de lá
                              E
Mas ela sabe que depois que cresce
              D
O filho vira passarinho 
         A  (passagem 2)
E quer voar

           D
Eu bem queria continuar ali
                              A
Mas o destino quis me contrariar
                           E
E o olhar de minha mãe na porta
              
Eu deixei chorando
           A
A me abençoar

( Bm  E  A  E  A ) (passagem 1)

[Segunda Parte]

   A
A minha mãe naquele dia
                           D
Me falou do mundo como ele é
   E
Parece que ela conhecia
                              A
Cada pedra que eu iria por o pé

E sempre ao lado do meu pai
              A7               D
Da pequena cidade ela jamais saiu

Ela me disse assim:
     A
Meu filho, vá com Deus
    E                     A (passagem 2)
Que esse mundo inteiro é seu

[Refrão]

           D
Eu sei que ela nunca compreendeu
                            A
Os meus motivos de sair de lá
                              E
Mas ela sabe que depois que cresce
              D
O filho vira passarinho 
         A  (passagem 2)
E quer voar

           D
Eu bem queria continuar ali
                              A
Mas o destino quis me contrariar
                           E
E o olhar de minha mãe na porta
                             A
Eu deixei chorando a me abençoar

                           E
E o olhar de minha mãe na porta
                              A  E  A  D/A  E  A
Eu deixei chorando a me abençoar
Composição: Joel MarquesColaboração e revisão: Leandro SandimThiago AlmeidaJúlio Cézardanilo g.ge mais 6
Videoaula No Dia Em Que Eu Saí De Casa - Zezé Di Camargo e Luciano (aula de violão)